» » »

Scorpions - Falling In Love Tabs

Artists:  A B C D E F G H I J K L M N O P Q R S T U V W X Y Z # 

Falling In Love Tabs

(ver. 1) Click to play this song!
Scorpions
 Rating:
4/5 (4 votes)

 Falling In Love lessons Tabs too difficult? Try these video lessons and learn fast
 
                Intro                                        
E-|---------------------------------------------------------------------------|
B-|--5-5-5-5-4-4-4-4-5-5-5-5-2-2/4---repeat-2-times.--------------------------|
G-|-----------------------------------------------------99~~------------------|
D-|-----------------------------------------------------99~~---repeat-2-times-|
A-|-----------------------------------------------------77~~------------------|
E-|---------------------------------------------------------------------------|
									       
     Main Riff (Verse)                                                         
E-|---------------------------------------------------------------------------|
B-|---------------------------------------------------------------------------|
G-|--9-9--7~--12-#-12----14~--------------------------------------------------|
D-|--9-9--7~--12-#-12----14~--------------------------------------------------|
A-|--7-7--5~--10-#-10----12~--------------------------------------------------|
E-|---------------------------------------------------------------------------|
									       
     Chours                                                                    
E-|---------------------------------------------------------------------------|
B-|---------------------------------------------------------------------------|
G-|--5---------7----9~~~~~~~9~~~~~~~9~~~~~~~~~5----------7----9~~~~~~9~~~~~~~-|
D-|--5---------7----9~~~~~~~7~~~~~~~9~~~~~~~~~5----------7----9~~~~~~9~~~~~~~-|
A-|--3---------5----7~~~~~~~7~~~~~~~7~~~~~~~~~3----------5----7~~~~~~7~~~~~~~-|
E-|---------------------------------------------------------------------------|
     Falling   In   Love   oooh-oooh-oooh     Falling    In   Love   ooh-ooh          
      
E-|---------------------------------------------------------------------------|
B-|---------------------------------------------------------------------------|
G-|--5---------7----9~~~~~~~9~~~~~~~9~~~~~~~~~5----------7----9~~~~~~9~~~~~~~-|
D-|--5---------7----9~~~~~~~7~~~~~~~9~~~~~~~~~5----------7----9~~~~~~9~~~~~~~-|
A-|--3---------5----7~~~~~~~7~~~~~~~7~~~~~~~~~3----------5----7~~~~~~7~~~~~~~-|
E-|---------------------------------------------------------------------------|
     Falling   In   Love   oooh-oooh-oooh     Falling    In   Love    oooh-ooh
      
      
E-|--------------------|
B-|--------------------|
G-|--5-----7-----9~----|
D-|--5-----7-----9~----|
A-|--3-----5-----7~----|
E-|--------------------|
      
     
    Middle play before 2-nd verse                                            
E-|---------------------------------------------------------------------------|
B-|---------------------------------------------------------------------------|
G-|---9-9--7~--12-#-12----14~-------------------------------------------------|
D-|---9-9--7~--12-#-12----14~--------(repeat-3-times)-------------------------|
A-|---7-7--5~--10-#-10----12~-------------------------------------------------|
E-|---------------------------------------------------------------------------|
									       
      Verse 2                                                                  
E-|---------------------------------------------------------------------------|
B-|---------------------------------------------------------------------------|
G-|---9-9--7~--12-#-12----14~-------------------------------------------------|
D-|---9-9--7~--12-#-12----14~-------------------------------------------------|
A-|---7-7--5~--10-#-10----12~-------------------------------------------------|
E-|---------------------------------------------------------------------------|
									       
     Chours                                                                    
E-|---------------------------------------------------------------------------|
B-|---------------------------------------------------------------------------|
G-|--5---------7----9~~~~~~~9~~~~~~~9~~~~~~~~~5----------7----9~~~~~~9~~~~~~~-|
D-|--5---------7----9~~~~~~~7~~~~~~~9~~~~~~~~~5----------7----9~~~~~~9~~~~~~~-|
A-|--3---------5----7~~~~~~~7~~~~~~~7~~~~~~~~~3----------5----7~~~~~~7~~~~~~~-|
E-|---------------------------------------------------------------------------|
     Falling   In   Love   oooh-oooh-oooh     Falling    In   Love   ooh-ooh          
      
E-|---------------------------------------------------------------------------|
B-|---------------------------------------------------------------------------|
G-|--5---------7----9~~~~~~~9~~~~~~~9~~~~~~~~~5----------7----9~~~~~~9~~~~~~~-|
D-|--5---------7----9~~~~~~~7~~~~~~~9~~~~~~~~~5----------7----9~~~~~~9~~~~~~~-|
A-|--3---------5----7~~~~~~~7~~~~~~~7~~~~~~~~~3----------5----7~~~~~~7~~~~~~~-|
E-|---------------------------------------------------------------------------|
     Falling   In   Love   oooh-oooh-oooh     Falling    In   Love    oooh-ooh
      
      
E-|--------------------|
B-|--------------------|
G-|--5-----7-----9~----|
D-|--5-----7-----9~----|
A-|--3-----5-----7~----|
E-|--------------------|
      
   
    Rhythm under solo                                                          
E-|---------------------------------------------------------------------------|
B-|---------------------------------------------------------------------------|
G-|--9-9--7~--12-#-12----14~--------------------------------------------------|
D-|--9-9--7~--12-#-12----14~--------------------------------------------------|
A-|--7-7--5~--10-#-10----12~--------------------------------------------------|
E-|---------------------------------------------------------------------------|
									       
     Then the Chours again                                                     
E-|---------------------------------------------------------------------------|
B-|---------------------------------------------------------------------------|
G-|---5---------7----9~~~~~~~9~~~~~~~9~~~~~~~~~5----------7----9--------------|
D-|---5---------7----9~~~~~~~7~~~~~~~9~~~~~~~~~5----------7----9--------------|
A-|---3---------5----7~~~~~~~7~~~~~~~7~~~~~~~~~3----------5----7--------------|
E-|---------------------------------------------------------------------------|
      Falling   In   Love    ooh-ooh-ooooh     Falling    In   Love            
									       
E-|---------------------------------------------------------------------------|
B-|---------------------------------------------------------------------------|
G-|---5---------7----9~~~~~~~9~~~~~~~9~~~~~~~~~5----------7----9--------------|
D-|---5---------7----9~~~~~~~7~~~~~~~9~~~~~~~~~5----------7----9--------------|
A-|---3---------5----7~~~~~~~7~~~~~~~7~~~~~~~~~3----------5----7--------------|
E-|---------------------------------------------------------------------------|
      Falling   In   Love    oooh-oooh-oooooh  Falling    In   Love            
									       
E-|---------------------------------------------------------------------------|
B-|---------------------------------------------------------------------------|
G-|---5---------7----9~~~~~~~9~~~~~~~9~~~~~~~~~5----------7----9--------------|
D-|---5---------7----9~~~~~~~7~~~~~~~9~~~~~~~~~5----------7----9--------------|
A-|---3---------5----7~~~~~~~7~~~~~~~7~~~~~~~~~3----------5----7--------------|
E-|---------------------------------------------------------------------------|
      Falling   In   Love     oooh-ooh-oooh    Faaallling In   Loovvve         
      
      Fade out with Intro                                                      
E-|---------------------------------------------------------------------------|
B-|--5-5-5-5-4-4-4-4-5-5-5-5-2-2/4---repeat-2-times.--------------------------|
G-|------------------------------------------------------99~~-----------------|
D-|------------------------------------------------------99~~-----------------|
A-|------------------------------------------------------77~~-----------------|
E-|---------------------------------------------------------------------------|
									       
 The Text:
 Falling In Love
 ----------------
 I look in your eyes, I really think you're fooling me
 You're pretty and nice, it doesn't matter don't you see
 'cause I falling in love, it happens to me every day
 I'm falling in love, love just seems to slip away
 
 I'm falling in love
 Ooh, oooh
 I'm falling in love
 Ooh, oooh
 I'm falling in love
 Ooh, oooh

 Don't tell me your lies, I don't believe a word you say
 You do realize, I move around from day to day
 And I'm falling in love, it happens to me every day
 I'm falling in love, love just seems to slip away
 
 I'm falling in love 
 Ooh, oooh
 I'm falling in love
 Ooh, oooh
 I'm falling in love
 Ooh, oooh
 I'm falling in love
									       

    Tab explanation:
    ~: hold out (don't lay your hand on the stringz)
    #: -Lay your hand on the strings. --LISTEN ON THE RECORD TO FIND OUT--
    /: Slide a bit

                 LISTEN TO THE RECORD FOR TIMING!!!

		 IF YOU HAVE THE SOLO- mail ME !!!
		 Does anyone have the singel version When You Came Into My Life
		 in MP3 format?  In case: MAIL ME!!!  (the best song for the moment)


THIS SONG IS A VERY GOOD SONG BY THE BEST BAND FOREVER, THE BAND I MEAN 
IS OFCOURSE  SCORPIONS!!!
I SEND MY BEST REGARDS TO Assad Al Mehrizi, WHO I HAVE THE PLEASURE TO HAVE
AS "MAIL FRIEND". -THANK YOU WERY MUCH FOR EVERYTHING!!!!!!!

----THIS IS MY FIRST SONG I EVER TABBED!!! IF YOU HAVE  ANY CORRECTIONS OR 
						     PLEASE USE THE FIRST FIRST!!!
            
Submit corrections


        Falling In Love lessons Hard to play? Try these video lessons and learn fast Falling In Love lessons
        
↑ Back to top | Tablatures and chords for acoustic guitar and electric guitar, ukulele, drums are parodies/interpretations of the original songs. You may use it for private study, scholarship, research or language learning purposes only