» » »

Scorpions - Dust In The Wind Tabs

Artists:  A B C D E F G H I J K L M N O P Q R S T U V W X Y Z # 

Dust In The Wind Tabs

(ver. 1) Click to play this song!
Scorpions
 Rating:
4/5 (4 votes)

 Dust In The Wind lessons Tabs too difficult? Try these video lessons and learn fast
 
                (intro)   2x
1° guitar
      C       C7+      C9      C      Am9      A4     Am      Am9
E|-------|-------|-------|-------|-------|-------|-------|-------|
B|---1---|---0---|---3---|---1---|---0---|---3---|---1---|---0---|
G|---0---|---0---|---0---|---0---|---2---|---2---|---2---|---2---|
D|---2---|---2---|---2---|---2---|---2---|---2---|---2---|---2---|
A|---3---|---3---|---3---|---3---|---0---|---0---|---0---|---0---|
E|-------|-------|-------|-------|-------|-------|-------|-------|
      C9       C      C7+      C9      Am      Am9     A4      Am
E|-------|-------|-------|-------|-------|-------|-------|-------|
B|---3---|---1---|---0---|---3---|---1---|---0---|---3---|---1---|
G|---0---|---0---|---0---|---0---|---2---|---2---|---2---|---2---|
D|---2---|---2---|---2---|---2---|---2---|---2---|---2---|---2---|
A|---3---|---3---|---3---|---3---|---0---|---0---|---0---|---0---|
E|-------|-------|-------|-------|-------|-------|-------|-------|
2° guitar
  (1) C            C7+             C9                C
E|---------------|---------------|-----------------|---------------|
b|-1-------1-----|-0-------0-----|-3-------3-------|-1-------1-----|
g|-----0-------0-|-----0-------0-|-----0-------0---|-----0-------0-|
D|---2-------2---|---2-------2---|---2-------2-----|---2-------2---|
A|-3-----3-------|-3-----3-------|-3-----3---------|-3-----3-------|
E|---------------|---------------|-----------------|---------------|
 (2) Am9           A4                Am              Am9
E|---------------|-----------------|---------------|---------------|
b|-0-------0-----|-3-------3-------|-1-------1-----|-0-------0-----|
g|-----2-------2-|-----2-------2---|-----2-------2-|-----2-------2-|
D|---2-------2---|---2-------2-----|---2-------2---|---2-------2---|
A|-0-----0-------|-0-----0---------|-0-----0-------|-0-----0-------|
E|---------------|-----------------|---------------|---------------|
 (3) C9             C               C7+             C9
E|-----------------|---------------|---------------|---------------|
b|-3-------3-------|-1-------1-----|-0-------0-----|-3-------3-----|
g|-----0-------0---|-----0-------2-|-----0-------0-|-----0-------0-|
D|---2-------2-----|---2-------2---|---2-------2---|---2-------2---|
A|-3-----3---------|-3-----3-------|-3-----3-------|-3-----3-------|
E|---------------|---------------|-----------------|---------------|
 (4) Am           Am9             A4                Am/C
E|---------------|---------------|-----------------|---------------|
b|-1-------1-----|-0-------0-----|-3-------3-------|-1-------1-----|
g|-----2-------2-|-----2-------2-|-----2-------2---|-----2-------2-|
D|---2-------2---|---2-------2---|---2-------2-----|---2-------2---|
A|-0-----0-------|-0-----0-------|-0-----0---------|-3-----3-------|
E|---------------|---------------|-----------------|---------------|

G C     G   Am      G          Dm      Am                      G
I close my eyes,  only for a moment, and the moments gone
C    G    Am     G               Dm          Am    Dm
All my dreams    pass before my eyes, a curiosity
G           Am    Dm            G           Am    G
Dust in the Wind. All we are is dust in the wind.

C    G   Am      G              Dm       Am               G
Same old song,   just a drop of water in an endless sea.
C   G  Am     G               Dm                 Am              Dm
All we do ... crumbles to the ground .. though we refuse to see.
G           Am    Dm          G              Am
Dust in the wind. All we are is dust in the wind.

Am G Am G F         (2º G and F half time)

Am G Am G F 2x + Intro ( 2º G and F half time )
#solo
e|---------------------------------------------------------------|
b|---------------------------------------------------------------|
g|-9----7-----------7--------------------------------------------|
D|---------10-9-10-----10-9-7-9-10---9-7-----9-10-9-7-5-7-5------|
A|----------------------------------------------------------7-5-7|
E|---------------------------------------------------------------|

e|---------------------------------------------------------------|
b|---------------------------------------------------------------|
g|-9----7-----------7-----------------------------------7-9-10-12|
D|---------10-9-10-----10-9-7-9-10---9-7-----9-10-9-7-9----------|
A|---------------------------------------------------------------|
E|---------------------------------------------------------------|

Faster part
e|----------------------------------------------------------------------------------------------|
b|----------------------------------------------------------------------------------------------|
g|12-14-12---10-12-10---9-10-9---7-9-7----7--------------------------7-9-7-9-10-12-10-12-14-12--|
D|-------------------------------------10---10-9-7-----9-10-9-7-9-10----------------------------|
A|----------------------------------------------------------------------------------------------|
E|----------------------------------------------------------------------------------------------|

e|-------------------------------------------------|
b|-------------------------------------------------|
g|-12-14-12---10-12-10---9-10-9---7-9-7----7-------|
D|--------------------------------------10---10-9-7|
A|-------------------------------------------------|
E|-------------------------------------------------|

G   C     G    Am   G                Dm              Am
Now don't hang on,  nothing lasts forever but the earth and sky.
G  C     G  Am            G              Dm            Am         Dm
It slips a__way, ... and all your money won't have another minute buy.
G           Am    Dm            G           Am
Dust in the wind. All we are is dust in the wind.
G           Am    Dm            G           Am
Dust in the wind. All we are is dust in the wind.
#Solo
e|-----------------------------------------------------------------------------------------------|
b|----------------------------------------------------------------------------10~--8-------------|
g|---7-9~--9~--9-10-9-7-9-7--7---------------------------------7-9-9-10-9-7-9~---9--7-10-9h10p9--|
D|10-----------------------10-10-9-10-9-7-9-7--7~--7~----7-9-10----------------------------------|
A|---------------------------------------------10--------10--------------------------------------|
E|-----------------------------------------------------------------------------------------------|

e|-------------------------------------------------|
b|-------------------------------------------------|
g|9h10p9h10p9h10p9h10p9h10p9h10p9~---7-------------|
D|--------------------------------10---10--9-7~----|
A|---------------------------------------10--------|
E|-------------------------------------------------|

Dm  G           Am    Dm            G           Am
    Dust in the wind. All we are is dust in the wind.
Dm  G           Am    Dm            G           Am
    Dust in the wind. All we are is dust in the wind.
            
Submit corrections


        Dust In The Wind lessons Hard to play? Try these video lessons and learn fast Dust In The Wind lessons
        
↑ Back to top | Tablatures and chords for acoustic guitar and electric guitar, ukulele, drums are parodies/interpretations of the original songs. You may use it for private study, scholarship, research or language learning purposes only