» » »

Saxon - Wheels Of Steel Tabs

Artists:  A B C D E F G H I J K L M N O P Q R S T U V W X Y Z # 

Wheels Of Steel Tabs

(ver. 1) Click to play this song!
Saxon
 Rating:
4.4/5 (8 votes)

 Wheels Of Steel  lessons Tabs too difficult? Try these video lessons and learn fast
 
                [Intro] 
eb|------------------------------------------|
Bb|------------------------------------------|
Gb|--2~~~~~~~~~~------------------------5-4--|
Db|--2~~~~~~~~~~------------------------5-4--|
Ab|--0~~~~~~~~~~-----------------------------|
Eb|------------------------------------------|
  
eb|---------------------------------|x2 Main Riff Variant
Bb|---------------------------------|
Gb|--2-----5-4-2----5-4-2~~---5-4---|
Db|--2-----5-4-2----5-4-2~~---5-4---|
Ab|-(0)-(0)-0---0-0--0--------------|
Eb|---------------------------------|

eb|---------------------------------|x2 (Main Riff - in the recording it sounds like there are two guitar 
Bb|---------------------------------|   tracks. One guitar plays this, and the other plays the variant above) 
Gb|--2-----5-4-2----5-4-2~~---5-4---|   
Db|--2-----5-4-2----5-4-2~~---5-4---|
Ab|-(0)-(0)-0---3p0--0--------------|
Eb|---------------------------------|
  
[Verse 1] 
eb|---------------------------------|x7 Main Riff 
Bb|---------------------------------|   
Gb|--2-----5-4-2----5-4-2~~---5-4---|   
Db|--2-----5-4-2----5-4-2~~---5-4---|
Ab|-(0)-(0)-0---3p0--0--------------|
Eb|---------------------------------|


eb|---------------------------------|x1
Bb|---------------------------------|   
Gb|--2-----5-4-2----5-4-2~~~~~------|   
Db|--2-----5-4-2----5-4-2~~~~~------|
Ab|-(0)-(0)-0---3p0--0--------------|
Eb|---------------------------------|

[Chorus 1]  
eb|-----------------------------------------------|x1 Chorus Riff (Immediately jump to main riff after)
Bb|--3-----------------------------3--------------|
Gb|--2-----5---4----2~~~~~~~~~~----2-----5---4----|
Db|--0-----5---4--5-2~~~~~~~~~~----0-----5---4--5-|
Ab|--------3---2--5-0~~~~~~~~~~----------3---2--5-|
Eb|---------------3-----------------------------3-|

eb|---------------------------------|x2 Main Riff 
Bb|---------------------------------|   
Gb|--2-----5-4-2----5-4-2~~---5-4---|   
Db|--2-----5-4-2----5-4-2~~---5-4---|
Ab|-(0)-(0)-0---3p0--0--------------|
Eb|---------------------------------|

eb|---------------------------------|x1
Bb|---------------------------------|   
Gb|--2-----5-4-2----5-4-2~~~~~------|   
Db|--2-----5-4-2----5-4-2~~~~~------|
Ab|-(0)-(0)-0---3p0--0--------------|
Eb|---------------------------------|

[Verse 2]  
(Same as Verse 1)

[Chorus 2] 
eb|-------------------------------|x1
Bb|--3----------------------------|
Gb|--2-----5---4----2~~~~~~~~~~---|
Db|--0-----5---4--5-2~~~~~~~~~~---|
Ab|--------3---2--5-0~~~~~~~~~~---|
Eb|---------------3---------------|
 
eb|--------|x3
Bb|--------|
Gb|---2~~~-|
Db|-5-2~~~-|
Ab|-5-0~~~-|
Eb|-3------|
 
[Solo]  
During the solo, the rhythm guitar plays:

Main Riff Variant x10 (variant without the pull-off) 
Chorus Riff x1
Main Riff Variant x2

Lead guitar plays:

eb|-----------------------------------------------------------15-14-12---------------------------------------|
Bb|-0h15-0h15-0h15-0h15-0h15b~~~~~--13----13-15b16r-13-----------------15-13----15-13-12-13-15----15-13------|
Gb|------------------------------------14--------------14~~~~----------------14----------------14-------14~~~|
Db|----------------------------------------------------------------------------------------------------------|
Ab|----------------------------------------------------------------------------------------------------------|
Eb|----------------------------------------------------------------------------------------------------------|

eb|--------------------------------------------------------------------------------------------------------|
Bb|-----10----10-12brbrbr--10-----------17b18-18b19-17~~~~-------------------------------------------------|
Gb|-/11----11-----------------11~~~~~~------------------------17-----------------17-----------------17-----|
Db|-------------------------------------------------------/19----19----10----/19----19----10-----/19-----10|
Ab|-----------------------------------------------------------------/12---12-----------/12---12-------/12--|
Eb|--------------------------------------------------------------------------------------------------------|

eb|------------------------------------------------------------------------------------------------------16|
Bb|-----------------------------------17-----------------------------------------------------17----17-19---|
Gb|---17------------17----17--19~~~-------------------------------12-------------17----17-19----19---------|
Db|/19-----10---/19----19----------/19------10--------10----12/14----12~~~~--/19----19---------------------| 
Ab|-----/12------------------------------12----12~~~~----12------------------------------------------------|
Eb|--------------------------------------------------------------------------------------------------------|

eb|-17-19-21-19-17----------------------------------------------------------------------------------------|
Bb|----------------17--20b22~~~~--------------------------------------------------------------------------|
Gb|------------------------------17-------------------------------------------17----19-17----19-17-19b21--|
Db|---------------------------------19-18-17-------------------17----17-18-19----19-------19--------------|
Ab|------------------------------------------19-18-17-15-17/19----19--------------------------------------|
Eb|-------------------------------------------------------------------------------------------------------|

eb|------------------20b21~-----------------------------------------------17b19--17b19--17b19--17b19-|
Bb|-20-17--------------------17-20-------------------20---17-----------------------------------------|
Gb|-------17-19b20~~~--------------19-17-----------------------19~~~--17-----------------------------|
Db|--------------------------------------19-17-------------------------------------------------------|
Ab|--------------------------------------------19~~--------------------------------------------------|
Eb|--------------------------------------------------------------------------------------------------|

eb|--17b19r17-17b19~~~~~~~|
Bb|-----------------------|
Gb|-----------------------|
Db|-----------------------|
Ab|-----------------------|
Eb|-----------------------|
 
[OUTRO]
Chorus Riff x1
Main Riff x?? (just keep playing to the end of the song)             
Submit corrections


        Wheels Of Steel  lessons Hard to play? Try these video lessons and learn fast Wheels Of Steel  lessons
        
↑ Back to top | Tablatures and chords for acoustic guitar and electric guitar, ukulele, drums are parodies/interpretations of the original songs. You may use it for private study, scholarship, research or language learning purposes only