» » »

Saxon - Rock Is Our Life Tabs

Artists:  A B C D E F G H I J K L M N O P Q R S T U V W X Y Z # 

Rock Is Our Life Tabs

(ver. 1) Click to play this song!
Saxon
 Rating:
4/5 (4 votes)

 Rock Is Our Life lessons Tabs too difficult? Try these video lessons and learn fast
 
                (Intro)
D#|-------------|------------------------------------|
A#|-------------|-maybe-not-exact-number-but-you-get-the idea
F#|-------------|------------------------------------|
C#|-5-5-5-5p4---|-|pm-----------------|-5-5-5-5p4----|
G#|-----------5-|---------------------------------5--|
D#|-------------|-0-0-0-0-0-0-0-0-0-0-0--------------|


D#|-------------------------------|
A#|-------------------------------|
F#|-------------------------------|
C#|-|pm---------------|-----------|
G#|---------------------5--5--5/7-|
D#|-3-3-3-3-3-3-3-3-3-3-3--3--3/5-|


D#|-----------------------------------|-------------|----------------------|
A#|-----------------------------------|-1st-time----|-2nd-time-------------|
F#|-----------------------------------|-------------|----------------------|
C#|-|pm-------|-4-4--|pm-|-7-7--|pm-|-|-5-5-5-5p4---|--|pm-------|---------|
G#|-------------2-2--------5-5--------|-----------5-|----------------------|
D#|-0-0-0-0-0-0------0-0-0------0-0-0-|-------------|--3-2-0-3-2-0---------|
            
Submit corrections


        Rock Is Our Life lessons Hard to play? Try these video lessons and learn fast Rock Is Our Life lessons
        
↑ Back to top | Tablatures and chords for acoustic guitar and electric guitar, ukulele, drums are parodies/interpretations of the original songs. You may use it for private study, scholarship, research or language learning purposes only