» » »

Saxon - Princess Of The Night Tabs

Artists:  A B C D E F G H I J K L M N O P Q R S T U V W X Y Z # 

Princess Of The Night Tabs

(ver. 1) Click to play this song!
Saxon
 Rating:
4/5 (4 votes)

 Princess Of The Night lessons Tabs too difficult? Try these video lessons and learn fast
 
                

Tune guitars down to Eb


main verse
-----------------------------------------------------------
-----------------------------------------------------------
-------------------------6/7-6/7-------------------7---6-7-
-9-----9-----9-----9-----4/5-4/5-7-----7-----7-----7---4-5-
-7-7-7-7-7-7-7-7-7-7-7-7---------5-5-5-5-5-5-5-5-5-5-------
-----------------------------------------------------------


bridge ("ninety tons of thunder...")
-----------------------------------------------------
-----------------------------------------------------
-------------------------6/7-6/7---------------------
-9-----9-----9-----9-----4/5-4/5-7-----7-----7-7-6-5-
-7-7-7-7-7-7-7-7-7-7-7-7---------5-5-5-5-5-5-5-5-4-3-
-----------------------------------------------------



chorus
--------------------------------------------------------------
--------------------------------------------------------------
------------------7-7-----7--------------------7-7-----7-7-7\-
-4---5---7----7---7-7-----7---4---5---7----7---7-7-----7-7-7\-
-2---3---5--5---5-----5-5-----2---3---5--5---5-----5-5--------
--------------------------------------------------------------

------------------------------------------
--------------------------8\--------------
--------------------7-7---7\--------------
-4---5---7-----7----7-7-------4---5-------
-2---3---5--5-----5-----5-----2-2-3-3-3-3-
------------------------------------------


(1:24) :
-------------------------------------
-------------------------------------
-----------------------2-2-2-2-------  just wank on the
-4---4------5---5------2-2-2-2-------  a-power-chord
-2-2-2--2-2-3-3-3--3-3-0-0-0-0-0-0---  here somehow
-------------------------------------  

solo backing:


---------------------------------
---------------------------------
---------------------------------
---------------------------------
--2----5---4-2---2----5---4-2----
--0--0-0-0-0-0-0-0--0-0-0-0-0-0--


(1:48) :
-------------------------------------------
-------------------------------------------
-------------------------------------------
--5--4--3----------------------------------
--5--4--3--2----5---4-2---2----5---4---2---
--3--2--1--0--0-0-0-0-0-0-0--0-0-0-0-0-0---


solo:
    
1)   
----------12-12---
----------12-12---
---14(16)---------  10 times
------------------
------------------
------------------
first bend slowly, the others fast

2)

-------------         ---------------------
--15p12------         --15p12----15(17)~---
--------14--- 6 times --------14-----------  7th
-------------         ---------------------
-------------         ---------------------
-------------         ---------------------

this lick is played very unclean on the recording,
just play it as fast as possible

3)

-----------12------------------------------------------------------------------------
-----------12-15p12----12------------------------------------------------------------
-----12h13----------14----14p12-----12~---------12h13-----12~---------12h13----12~---
--14-----------------------------14----14p12-14-------14-----14p12-14-------14-------

4)

-12-----12------14-----14-----13-----13-----15-----15-----15-17(19)---17(19)----17
-14(16)-14(16)--16(18)-16(18)-15(17)-15(17)-17(19)-17(19)----------------------------

-------
(19)~--
-------
-------
-------
-------


5)

-----------------------------------------------------------
-----------------------------------------------------------
--/12~---11~---10~-------12\11--------------12\11----------
----------------------14-------14-12h14--14-------12-14~---
-----------------------------------------------------------
-----------------------------------------------------------

6)

------------------------------12--------12--------12--------12---------
------------------------------12--------12--------12--------12--12~\---
--/12~---11~---10~-----14(16)----14(16)----14(16)----14(16)------------

7)

------------------------------15p12--------15p12--------15p12--------------
--/12~---11~---10~-----14(16)-------14(16)-------14(16)-------14-----------

8)

----------------------------
---------------10~----12\---
--/12~---11~----------------
----------------------------
----------------------------
----------------------------
            
Submit corrections


        Princess Of The Night lessons Hard to play? Try these video lessons and learn fast Princess Of The Night lessons
        
↑ Back to top | Tablatures and chords for acoustic guitar and electric guitar, ukulele, drums are parodies/interpretations of the original songs. You may use it for private study, scholarship, research or language learning purposes only