» » »

Saxon - Going Nowhere Fast Tabs

Artists:  A B C D E F G H I J K L M N O P Q R S T U V W X Y Z # 

Going Nowhere Fast Tabs

(ver. 1) Click to play this song!
Saxon
 Rating:
4/5 (4 votes)

 Going Nowhere Fast lessons Tabs too difficult? Try these video lessons and learn fast
 
                (Intro)

d#|-----------------|-----------------|
A#|-gtr1------------|-----------------|you can work out where the palm
F#|-----------------|-----------------|muting is
C#|-7---7-----7-----|-8---8-----8-----|
G#|-5-5-5-5-5-5-5-5-|-5-5-5-5-5-5-5-5-|
D#|-----------------|-----------------|

d#|-----------------|-----------------|
A#|-gtr2------------|-----------------|
F#|-7-7-7-7-7-7-7-7-|-7-7-7-7-7-7-7-7-|
C#|-7-7-7-7-7-7-7-7-|-8-8-8-8-8-8-8-8-|
G#|-----------------|-----------------|
D#|-----------------|-----------------|

d#|-------------------------|
A#|-main riff---------------|
F#|-----------------0-----0-|
C#|-/7--5-4-------2-----0---|
G#|---------5---3-----2-----|
D#|-------------------------|

I'll work out the rest soon
            
Submit corrections


        Going Nowhere Fast lessons Hard to play? Try these video lessons and learn fast Going Nowhere Fast lessons
        
↑ Back to top | Tablatures and chords for acoustic guitar and electric guitar, ukulele, drums are parodies/interpretations of the original songs. You may use it for private study, scholarship, research or language learning purposes only