Home » S » Saw Doctors »

Saw Doctors - Share The Darkness Tabs

Artists:  A B C D E F G H I J K L M N O P Q R S T U V W X Y Z # 

Share The Darkness Tabs

(ver. 1) Click to play this song!
Saw Doctors
Genre:  Irish

This is a really great song and I was surprised that no one had

CAPO ON 4th FRET!!!!

e|-----3---------------3-----------3-----------3-----------|
B|-----3---------------3-----------3-----------3-----------|
G|-----0---------------0-----------0-----------0-----------|
D|-----0---------------0-----------0-----------0-----------|
A|-----2---------------0-----------3-----------X-----------|
E|---------------------------------------------3-----------|

    Hey I can?t say that I love you, I can?t say that I don?t

e|-----3----------3-----------------3------------|
B|-----3----------3-----------------3------------|
G|-----0----------0-----------------0------------|
D|-----0----------0-----------------0------------|
A|-----2----------0-----------------3------------|
E|-----------------------------------------------|

  I can?t say that I couldn?t, and I won?t say that I won?t
            
Submit corrections

↑ Back to top | Tablatures and chords for acoustic guitar and electric guitar, ukulele, drums are parodies/interpretations of the original songs. You may use it for private study, scholarship, research or language learning purposes only