» » »

Saves The Day - Daybreak Ii Fucked Up Past The Point Of Fixing Tabs

Artists:  A B C D E F G H I J K L M N O P Q R S T U V W X Y Z # 

Daybreak Ii Fucked Up Past The Point Of Fixing Tabs

(ver. 1) Click to play this song!
Saves The Day
 Rating:
4/5 (4 votes)


 Daybreak Ii Fucked Up Past The Point Of Fixing lessons Tabs too difficult? Try these video lessons and learn fast
 
                -------------------------------------------------------------------------------
          DAYBREAK: f**kED UP PAST THE POINT OF FIXING (ACOUSTIC) - saves the day
-------------------------------------------------------------------------------

Tuning: Half-Step Down w/ Capo on 2nd Fret. Tablature relative to capo.

NOTE: see end for order of parts.

Part I:

e|---0--000--000--002--220--000--000--002--223-------------------------------|
B|---0--000--001--111--110--000--001--111--110-------------------------------|
G|---0--000--000--002--220--000--000--002--220-------------------------------|
D|---2--222--222--222--222--222--222--222--222-------------------------------|
A|---2--222--223--330--002--222--223--330--002-------------------------------|
E|---0--000--00----------0--000--00----------0-------------------------------|

Part II:

e|---0---0---2---0-----------------------------------------------------------|
B|---0---1---1---0---3/5-55\3-33/5--55\3-(3)---------------------------------|
G|---0---0---2---1---0xx-xx00-00xx--xx00-(0)---------------------------------|
D|---2---2---2---0---0h2-22p0-00h2--22p0-(0)---------------------------------|
A|---2---3---0---2-----------------------------------------------------------|
E|---0-----------0-----------------------------------------------------------|

"I thought I saw your headlights..."

NOTE: Listen to song for strumming pattern.

Part III

e|---0---0---0---0-----------------------------------------------------------|
B|---0---3---1---0---3/5-55\3-33/5--55\3-(3)---------------------------------|
G|---0---4---0---1---0~x-xx00-00~x--xx00-(0)---------------------------------|
D|---2---4---2---0---0h2-2200-00h2--2200-(0)---------------------------------|
A|---2---x---3---2-----------------------------------------------------------|
E|---0---3-------0-----------------------------------------------------------|

"I'm goin' out my mind..."

Part III w/ alternative ending I:

e|---0---0---0---0--000------------------------------------------------------|
B|---0---3---1---0--000------------------------------------------------------|
G|---0---4---0---0--000------------------------------------------------------|
D|---2---4---2---2--222------------------------------------------------------|
A|---2---x---3---2--222------------------------------------------------------|
E|---0---3-------0--000------------------------------------------------------|

"Love me all and let go..."

Part II w/ alternative ending II:

e|---0---0---0---0--2-2-2----------------------------------------------------|
B|---0---3---1---0--0-0-0----------------------------------------------------|
G|---0---4---0---1--2-2-2----------------------------------------------------|
D|---2---4---2---0--1-1-1----------------------------------------------------|
A|---2---x---3---2--2-2-2----------------------------------------------------|
E|---0---3-------0--0-0-0----------------------------------------------------|

NOTE: Listen to song for strumming pattern.

Part IV:

e|---0---3---2---2--2--------------------------------------------------------|
B|---1---3---3---3--3--------------------------------------------------------|
G|---0---0---2---2--2--------------------------------------------------------|
D|---2---0---0---0--0--------------------------------------------------------|
A|---3---2--(0)--------------------------------------------------------------|
E|-------3-------------------------------------------------------------------|

"Cause in the darkness of my mind..."

Transition:

e|-------2-------------------------------------------------------------------|
B|---1---0-------------------------------------------------------------------|
G|---0---2-------------------------------------------------------------------|
D|---2---1-------------------------------------------------------------------|
A|---3---0-------------------------------------------------------------------|
E|---------------------------------------------------------------------------|

Part III w/ alternative ending III:

e|---0---0---0---0-----------------------------------------------------------|
B|---0---3---1---0---3/5-55/7-77/8-88/10(10)---------------------------------|
G|---0---4---0---1---0~x-xxxx-xxxx-xxxx-(x)----------------------------------|
D|---2---4---2---0---0h2-22/4-44/5-55/7-(7)----------------------------------|
A|---2---x---3---2-----------------------------------------------------------|
E|---0---3-------0-----------------------------------------------------------|

*NOTE: Listen to song for strumming pattern.

Part III w/ alternative ending IV:

e|---0---000-000--0-0-0-0-0-3-0---------------------------------------------|
B|---0---335-353--1-1-1-1-1-3-0---------------------------------------------|
G|---0---444-444--0-0-0-0-0-0-0---------------------------------------------|
D|---2---444-444--0-0-0-0-2-0-2---------------------------------------------|
A|---2---xxx-xxx--3-2-0-0-3-2-2---------------------------------------------|
E|---0---333-333--------3---3-0---------------------------------------------|

*NOTE: Listen to song for strumming pattern.

*order of parts:

Part I x2
Part II
Part III
Part III alt. end. I
Part I
Part II
Part III
Part III alt. end II
Part IV x3
Transition
Part III
Part III alt. end III
Part III alt. end IV




************************************

| /   slide up
| \   slide down
| h   hammer-on
| p   pull-off
| ~   vibrato
| +   harmonic
| x   Mute note
| b   Bend
| pb  Pre-bend
| br  Bend release
| pbr Pre-bend release
| brb Bend release bend

************************************
            
Submit corrections



        Daybreak Ii Fucked Up Past The Point Of Fixing lessons Hard to play? Try these video lessons and learn fast Daybreak Ii Fucked Up Past The Point Of Fixing lessons
        
↑ Back to top | Tablatures and chords for acoustic guitar and electric guitar, ukulele, drums are parodies/interpretations of the original songs. You may use it for private study, scholarship, research or language learning purposes only