» » »

Save Ferris - The Only Way To Be Tabs

Artists:  A B C D E F G H I J K L M N O P Q R S T U V W X Y Z # 

The Only Way To Be Tabs

(ver. 1) Click to play this song!
Save Ferris
 Rating:
4/5 (4 votes)
                The Only Way To Be – Save Ferris - Modified 

This is a fairly basic version of the song it’s not 100% 
accurate and it doesn’t have either parts of the solo.  


Intro Part 1 (With FX, sounds like distortion and Wah Wah but I’m not sure): 
E----------------------------------------------| 
B----------------------------------------------| 
G----------------------------------------------|
D----------------------------------6-5---------| 
A-----5---------6---------5------------6-------|
E-6-6---6---4-4---4---6-6---6--4---------------|


Intro Part 2 Clean Ska Upstrokes
E-6-6—-4-4/
B-6-6—-4-4/
G-7-7—-5-5/ 
D-8-8—-6-6/
A-8-8—-6-6/
E-6-6—-4-4/

Verse (Play for as long as needed)

E-6-6—-4-4--6-6—-4-5-4/
B-6-6—-4-4--6-6—-4-5-4/
G-7-7—-5-5--7-7—-5-6-5/
D-8-8—-6-6--8-8—-6-7-6/
A-8-8—-6-6--8-8—-6-7-6/
E-6-6—-4-4--6-6—-4-5-4/
                           

1st Chorus (Distortion)          End of 1st Chorus (Distortion)
E----------------------|      |-------------------|
B----------------------|      |-------------------|
G-8-8------------------|      |---8-8-8-8-8-8-8-8-|
D-6-6-6-6-8-8-6-0-6-8--| X3   |-6-6-6-6-6-6-6-6-6-|
A-6-6-6-6-8-8-4-0-6-6--|      |-4-6-6-6-6-6-6-6-6-|
E-----4-4-6-6-4-0-4-6--|      |-4-----------------|

Back To Verse

Play 1st chorus again, but ending it with

E---------------------------------------|    
B---------------------------------------|    
G-8-10----------------------------------|   
D-6-10-6-6-6-6-6-6-6-6-8-8-8-8-8-8-8-8--| 
A-6—8--6-6-6-6-6-6-6-6-8-8-8-8-8-8-8-8--|     
E------4-4-4-4-4-4-4-4-6-6-6-6-6-6-6-6--|

Not sure about the solo’s but the on first part a second guitar play’s the verse and on the second distorted part a second guitar play’s the chorus three times with it ending on:

E------    
B------    
G-8-10-   
D-6-10- 
A-6—8--    
E------

Then you go back to the chorus and play it three times with it ending as above.

Then play the intro as many times as needed with the last one ending like this:

E------------------------------------------------------------| 
B------------------------------------------------------------| 
G------------------------------------------------------------| 
D----------------------------------6-5-----------------------| 
A-----5---------6---------5------------6---------------------| 
E-6-6---6---4-4---4---6-6---6--4---------6-------------------|

I hope this helps
            
Submit corrections

↑ Back to top | Tablatures and chords for acoustic guitar and electric guitar, ukulele, drums are parodies/interpretations of the original songs. You may use it for private study, scholarship, research or language learning purposes only