» » »

Savatage - Ocean Bass

Artists:  A B C D E F G H I J K L M N O P Q R S T U V W X Y Z # 

Ocean Bass

(ver. 1) Click to play this song!
Savatage
 Rating:
4/5 (4 votes)


 Ocean lessons Tabs too difficult? Try these video lessons and learn fast
 
                
THE OCEAN (Bassline)
As recorded by Savatage
(From the 1998 Album THE WAKE OF MAGELLAN)

	



Gtr I (E A D G) - 'Untitled'

 Intro                     Theme
  Q=112        Q=72         Q=112
 4/4
  Gtr I
  Wx4          Wx2          S S S S S S S S S S S S S S S S
|------------:------------|---------------------------------|
|------------:------------|-0h2-2-2-2-2-0h2-2-2-2-2-0h2-0---|
|------------:------------|-------------------------------2-|
|------------:------------|---------------------------------|


  S S S S S S S S S S S S S S S S
|----------------------------------|
|----------------------------------|
|----------------------------------|
|-0-0-0-0-0-0-0-0-0-0-0-0-0-0-0-0--|


  S S S S S S S S S S S S S S S S   S S S S S S S S S S S S S S S S
|---------------------------------|---------------------------------|
|-0h2-2-2-2-2-0h2-2-2-2-2-0h2-0---|---------------------------------|
|-------------------------------2-|---------------------------------|
|---------------------------------|-0-0-0-0-0-0-0-0-0-0-0-0-0-0-0-0-|


  S S S S S S S S S S S S S S S S   S S S S S S S S S S S S S S S S
|---------------------------------|---------------------------------|
|-0h2-2-2-2-2-0h2-2-2-2-2-0h2-0---|---------------------------------|
|-------------------------------2-|---------------------------------|
|---------------------------------|-0-0-0-0-0-0-0-0-0-0-0-0-0-0-0-0-|


  S S S S S S S S S S S S S S S S   S S S S S S S S S S S S S S S S
|---------------------------------|---------------------------------|
|-0h2-2-2-2-2-0h2-2-2-2-2-0h2-0---|---------------------------------|
|-------------------------------2-|---------------------------------|
|---------------------------------|-0-0-0-0-0-0-0-0-0-0-0-0-0-0-0-0-|


  S S S S S S S S S S S S S S S S   S S S S S S S S S S S S S S S S
|---------------------------------|---------------------------------|
|-0h2-2-2-2-2-0h2-2-2-2-2-0h2-0---|---------------------------------|
|-------------------------------2-|---------------------------------|
|---------------------------------|-0-0-0-0-0-0-0-0-0-0-0-0-0-0-0-0-|


   Theme Repeats
    S S S S S S S S S S S S S S S S   S S S S S S S S S S S S S S S S   5x
||----------------------------------|-----------------------------------||
||o-0h2-2-2-2-2-0h2-2-2-2-2-0h2-0---|----------------------------------o||
||o-------------------------------2-|----------------------------------o||
||----------------------------------|-0-0-0-0-0-0-0-0-0-0-0-0-0-0-0-0---||


 Outro
  S S S S S S S S S S S S S S S S
|---------------------------------|
|-0h2-2-2-2-2-0h2-2-2-2-2-0h2-0---|
|-------------------------------2-|
|---------------------------------|


                                    H.=H       Q=56
  S S S S S S S S S S S S S S S S   W          +W
|---------------------------------|----------|--------*|
|---------------------------------|----------|--------*|
|---------------------------------|----------|--------*|
|-0-0-0-0-0-0-0-0-0-0-0-0-0-0-0-0-|-0--------|-(0)----*|



Duration Legend
---------------
W - whole; H - half; Q - quarter; E - 8th; S - 16th; T - 32nd; X - 64th; a - acciaccatura
+ - note tied to previous; . - note dotted; .. - note double dotted
Uncapitalized letters represent notes that are staccato (1/2 duration)
Irregular groupings are notated above the duration line
Duration letters will always appear directly above the note/fret number it represents the
duration for.  Duration letters with no fret number below them represent rests.  Multi-
bar rests are notated in the form Wxn, where n is the number of bars to rest for.  Low
melody durations appear below the staff

Tablature Legend
----------------
 h   - hammer-on
 p   - pull-off
 b   - bend
 pb  - pre-bend
 r   - bend release (if no number after the r, then release immediately)
 /\  - slide into or out of (from/to "nowhere")
 s   - legato slide
 S   - shift slide
 - natural harmonic
[n]  - artificial harmonic
n(n) - tapped harmonic
 ~   - vibrato
 tr  - trill
 T   - tap
 TP  - trem. picking
 PM  - palm muting
\n/  - tremolo bar dip; n = amount to dip
 \n  - tremolo bar down
 n/  - tremolo bar up
/n\  - tremolo bar inverted dip
 =   - hold bend; also acts as connecting device for hammers/pulls
 <> - volume swell (louder/softer)
 x   - on rhythm slash represents muted slash
 o   - on rhythm slash represents single note slash

Misc Legend
-----------
 |  - bar
||  - double bar
||o - repeat start
o|| - repeat end
*|  - double bar (ending)
 :  - bar (freetime)
 $  - Segno
 &  - Coda
Tempo markers -  = BPM(8/16=s8/s16), where s8 = swing 8ths, s16 = swing 16ths
            
Submit corrections



        Ocean lessons Hard to play? Try these video lessons and learn fast Ocean lessons
        
↑ Back to top | Tablatures and chords for acoustic guitar and electric guitar, ukulele, drums are parodies/interpretations of the original songs. You may use it for private study, scholarship, research or language learning purposes only