» » »

Savatage - Streets Bass

Artists:  A B C D E F G H I J K L M N O P Q R S T U V W X Y Z # 

Streets Bass

(ver. 1) Click to play this song!
Savatage
 Rating:
4/5 (4 votes)


 Streets lessons Tabs too difficult? Try these video lessons and learn fast
 
                |----------------------------------------|
|----------------Savatage----------------|
|-----------------Streets----------------|
|--------------Streets-(1991)------------|
|----------------------------------------|


Tempo: due to the changes, it's shown for every riff
Tuning: Standard (E A D G)


------
Riffs:
------

Pre-Verse/Chorus (BPM 96)

     Q  Q  H   Q  E E H   Q  Q  H   E E E E E E E E
G|-|---------|----------|---------|-----------------|
D|4|---------|----------|---------|-----------------|
A|4|---------|----------|---------|-----------------|
E|-|-0--3--2-|-1--1-3-0-|-0--3--2-|-1-1-1-3-0-0-0-0-|


Verse (BPM 112)

     E.E E S S E.  E.E E S E E.
G|-|-------------|-------------|
D|3|-------------|-------------|
A|4|---------5h7-|---------7h8-|
E|-|-0-0-0-0-----|-0-0-0-0-----|


Interlude (BPM 114)

      E E E E E E E E 4x  E E E E E E E E 4x
G|-|-------------------|-------------------|
D|4|o-----------------o|o-----------------o|
A|4|o-0-0-0-0-0-0-0-0-o|o-----------------o|
E|-|-------------------|--0-0-0-0-0-0-0-0--|


Bridge A/Outro (BPM 88)

     W    W     W     W
G|-|---|-----|-----|-----|
D|4|---|-----|-----|-----|
A|4|---|-----|-----|-----|
E|-|-0-|-(0)-|-(0)-|-(0)-|


Bridge B (BPM 88)

     W    W
G|-|---|-----|
D|4|---|-----|
A|4|---|-----|
E|-|-0-|-(0)-|


----------
Structure:
----------

Pre-Verse   2x
Verse      10x
Chorus      2x
Verse       8x
Chorus      2x
Interlude   2x
Chorus      2x
Bridge A    1x

Break

Bridge A    1x
Bridge B    4x

Break

Pre-Verse   2x
Verse      10x
Chorus      2x
Outro       1x


-------------
Description:
-------------
W   - whole notes
H   - half notes
Q   - quarter notes
E   - 8th notess
S   - 16th notes
.   - note dotted (e.g. "E." or "Q.")
(x) - let ring the note

|4|
|4| - Time Signature (e.g. stands for 4/4)

|o  - repeat start
o|  - repeat end

h   - hammer-on
            
Submit corrections



        Streets lessons Hard to play? Try these video lessons and learn fast Streets lessons
        
↑ Back to top | Tablatures and chords for acoustic guitar and electric guitar, ukulele, drums are parodies/interpretations of the original songs. You may use it for private study, scholarship, research or language learning purposes only