» » »

Savatage - Shotgun Innocence Bass

Artists:  A B C D E F G H I J K L M N O P Q R S T U V W X Y Z # 

Shotgun Innocence Bass

(ver. 1) Click to play this song!
Savatage
 Rating:
4/5 (4 votes)


 Shotgun Innocence lessons Tabs too difficult? Try these video lessons and learn fast
 
                (Intro)
Tempo = 120
Electric Bass

Legend
L - tied note
x - dead note
h - hammer on/pull off
b - bend
s - slide
~ - vibrato
g - ghost note
> - accentuated note
t - trill
M - palm mute
. - staccato
P - popping (bass)
S - slapping (bass)
+ - tapping
W - wide vibrato
< - fade in
w - whammy bar
= - tremolo picking
v - brush up
^ - brush down
V - pick stroke up
n - pick stroke down


F ||---|----|----|---|||--||----|-------|-------||--------------------------||
C ||o--|----|----|--o|||oo||----|-------|-------||o------------------------o||
G ||o--|----|----|--o|||oo||----|--0L---|--0----||o------------------------o||
D ||---|----|----|---|||--||----|-------|-------||-0--0--0--0--0--0--0--0---||


-------|-------------------------------|----------------|----||
-------|-------------------------------|----------------|----||
--0L---|--0-----------------2--2--2----|--2--2--2--2----|----||
-------|-------------------------------|----------------|----||


---------------------------|
o--------------------------|
o7--------5----------------|
----0--0-----0--0--0--0----|


-------------------------------------------------------|
-------------------------------------------------------|
--4----------------------------------------------------|
--------0-----0-----5-----------3s-5-----3-----0-------|


-------------------------------------|---------------------------|||
-------------------------------------|--------------------------o|||
--7--------5-----------3-------------|--3--3--3--3--2--2--2--2--o|||
-----0--0-----0--0--0----------------|---------------------------|||


---------------------------------------------------------------------------|
o------------------------------5-------------------------------------------|
o------------7-----7--------------7--6--5----------------------------------|
-0--------------0--------------------------7--6--3-------------------------|


---------------------------------------------------------||----|----||
--------------------------------5-----------------------o||----|----||
--------------7-----7--------------7--6--5--------------o||----|----||
--0--------------0--------------------------3------------||----|----||
            
Submit corrections



        Shotgun Innocence lessons Hard to play? Try these video lessons and learn fast Shotgun Innocence lessons
        
↑ Back to top | Tablatures and chords for acoustic guitar and electric guitar, ukulele, drums are parodies/interpretations of the original songs. You may use it for private study, scholarship, research or language learning purposes only