» » »

Saosin - Sleepers Bass

Artists:  A B C D E F G H I J K L M N O P Q R S T U V W X Y Z # 

Sleepers Bass

(ver. 1) Click to play this song!
Saosin
 Rating:
4/5 (4 votes)


 Sleepers lessons Tabs too difficult? Try these video lessons and learn fast
 
                After Guitar intro..

G|----------------------------------------|
D|----------------------------------------|
A|----------------------------------------|
D|-0000000--1010101010--888888888888888---|

G|-----------------------------------|
D|-----------------------------------|
A|--------------------11111111111111-|
D|-0000000--33333333-----------------|

Preverse

G|----------|
D|----------|     x2
A|----------|
D|--0000/12-|

Verse

G|-----------------------------------------------------------------------------|
D|-----------------------------------------------------------------------------|
A|------------------------------------888---------------------------------1010-|
D|--121212121212121212--777777777777-------1010101010--888888888--101010-------|

G|---------------------------------------------------------------|
D|---------------------------------------------------------------|
A|--555555555----------------------------------------------------|
D|-------------77777777777--3333333333--101010101010--8888888888-|

Prechorus

G|-------------------------|
D|-------------------------|  x2
A|----------------7/8-7/8--|
D|--00-0-00-00-0-----------|

Chorus

G|--------------------------------------------|
D|--------------------------------------------|
A|---------------3333333333--1111111111111111-|
D|--00000000000-------------------------------|

G|--------------------------------------------|    x2
D|--------------------------------------------|
A|----------------------------111111111111111-|
D|--00000000000--33333333333------------------|

Postchorus

G|----------|
D|----------|     x2
A|----------|
D|--0000/12-|

Verse

G|----------------------------------------------------------|
D|----------------------------------------------------------|
A|----------------------------------------------------------|
D|--0000000000--777777777777-10101010101010--33333333333333-|

G|-----------------------------------------------------------------------------|
D|-----------------------------------------------------------------------------|
A|--5555555555555-----------------------------------333333333333--111111111111-|
D|-----------------777777777777777--33333333333333-----------------------------|

Prechorus

G|-------------------------|
D|-------------------------|  x2
A|----------------7/8-7/8--|
D|--00-0-00-00-0-----------|

Chorus

G|--------------------------------------------|
D|--------------------------------------------|
A|---------------3333333333--1111111111111111-|
D|--00000000000-------------------------------|

G|--------------------------------------------|            x2
D|--------------------------------------------|
A|----------------------------111111111111111-|
D|--00000000000--33333333333------------------|


Bridge

G|----------------------------------------------|
D|----------------------------------------------|    x4
A|--10/12--10/12--------10/12--10/12-------888--|
D|----------------0000----------------888-------|

End

G|-----------|
D|-----------|
A|-----------|
D|--0-0-00-0-|
            
Submit corrections



        Sleepers lessons Hard to play? Try these video lessons and learn fast Sleepers lessons
        
↑ Back to top | Tablatures and chords for acoustic guitar and electric guitar, ukulele, drums are parodies/interpretations of the original songs. You may use it for private study, scholarship, research or language learning purposes only