» » »

Santana - Europa Tabs

Artists:  A B C D E F G H I J K L M N O P Q R S T U V W X Y Z # 

Europa Tabs

(ver. 1) Click to play this song!
Santana
 Rating:
4.1/5 (31 vote)

 Europa lessons Tabs too difficult? Try these video lessons and learn fast
 
                Section A]

e|------------------------------------------------------------------------------------|
B|--1-----6-------------8------4------6------3------4---------------------------------|
G|--1-----5--(----5-)---7------5------5------4------3---------------------------------|
D|--3-----6--(-or-6-)---8------5------6------3------5---------------------------------|
A|-----------(----5-)---6-------------5-------------3---------------------------------|
E|--1-----6--(----6-)----------4-------------3----------------------------------------|

   Fm    Bb9          Ebmaj7 G#maj7 Dm7b5   G7     Cm7


Every other(ish) time it ends on Cmaj7 instead of Cmin7 as seen below

e|----------------------------------------------------------------------------|
B|--1-----6-------------8----4----6----3----5---------------------------------|
G|--1-----5--(----5-)---7----5----5----4----4---------------------------------|
D|--3-----6--(-or-6-)---8----5----6----3----5---------------------------------|
A|-----------(----5-)---6---------5---------3---------------------------------|
E|--1-----6--(----6-)--------4---------3--------------------------------------|


[Section B]

The B section is actually the same as the A Section, but the first chord is substituted
with a Bb9 as well, so the chord lasts for two bars instead of one.

e|------------------------------------------------------------------------------------|
B|--6-----6-------------8------4------6------3------4---------------------------------|
G|--5-----5--(----5-)---7------5------5------4------3---------------------------------|
D|--6-----6--(-or-6-)---8------5------6------3------5---------------------------------|
A|-----------(----5-)---6-------------5-------------3---------------------------------|
E|--6-----6--(----6-)----------4-------------3----------------------------------------|

   Bb9   Bb9 (again)  Ebmaj7 G#maj7 Dm7b5   G7     Cm7

e|------------------------------------------------------------------------------------|
B|--6-----6-------------8------4------6------3------5---------------------------------|
G|--5-----5--(----5-)---7------5------5------4------4---------------------------------|
D|--6-----6--(-or-6-)---8------5------6------3------5---------------------------------|
A|-----------(----5-)---6-------------5-------------3---------------------------------|
E|--6-----6--(----6-)----------4-------------3----------------------------------------|

   Bb9   Bb9 (again)  Ebmaj7 G#maj7 Dm7b5   G7     Cmaj7



[Outro]

N.C. 
The entire second half of the song goes into a double-time feel and just alternates
between a Cm7 and an Fm

e|--------------|
B|---4-----1----|
G|---3-----1----|
D|---5-----3----|
A|---3----------|
E|---------1----|

N.C.


[Form]

0:00-1:16 - Section A   1:16-2:09 - Section B    2:09-2:30 - Section A    2:30-END - Outro             
Submit corrections


        Europa lessons Hard to play? Try these video lessons and learn fast Europa lessons
        
↑ Back to top | Tablatures and chords for acoustic guitar and electric guitar, ukulele, drums are parodies/interpretations of the original songs. You may use it for private study, scholarship, research or language learning purposes only