» » »

Santana - El Farol Tabs

Artists:  A B C D E F G H I J K L M N O P Q R S T U V W X Y Z # 

El Farol Tabs

(ver. 1) Click to play this song!
Santana
 Rating:
4.3/5 (20 votes)

 El Farol lessons Tabs too difficult? Try these video lessons and learn fast
 
                TEMPO: 102

    Am                          Dm                            G
e|--8-------------------------|----------------------8--7--|-----------------------0-----|
B|--------5--5-----------5--6-|--------6--6----------------|------3--3----------3--------|
G|--------5--5-------5--------|--------7--7------7---------|------4--4-------4-----------|
D|----------------------------|----------------------------|-----------------------------|
A|--0------------0------------|--5-----------5-------------|-----------------------------|
E|----------------------------|----------------------------|--3-----------3--------------|


    Cmaj7                         Fmaj7                        Dm
e|-----------------------------|--5-------------------------|-------------------------5--|
B|--------3--3------------5----|--5-----5--5-------------3--|--------3--3----0--3--5-----|
G|--------0--0---------3-------|--5-----5--5---------5------|--------2--2----------------|
D|------------------4----------|--3-----------3-------------|--0-------------------------|
A|--3--------------------------|----------------------------|----------------------------|
E|-----------------------------|----------------------------|----------------------------|


    E                             Am                                    PAUSE
e|--4----1----0----------------|-0-----0-------------------------------------------------|
B|-----------------3------1H3--|----3----------1-----1--------------1--------------------|
G|-----------------------------|---------------2-----2----------2------------------------|
D|-----------------------------|-----------------------------2---------------------------|
A|-----------------------------|---------------------------------------------------------|
E|--0--------------------------|---------------------------------------------------------|


   Am                          Dm                            G
e|--8-------------------------|--------------------8--7----|----------------------3------|
B|--5-----5--5--------5--6----|--------6--6----------------|--------3--3-------3-----3---|
G|--5-----5--5-----5----------|--------7--7-----7----------|--------4--4-----------------|
D|----------------------------|----------------------------|-----------------------------|
A|--0-----------0-------------|--5-----------5-------------|-----------------------------|
E|----------------------------|----------------------------|--3-----------3--------------|


    Cmaj                          Fmaj7                        Dm
e|--0--------------------------|--5-------------------------|-------------------------5--|
B|--------0--0-----------5-----|--5-----5--5--------5-------|--3-----3--3----0--3--5-----|
G|--------0--0--------3--------|--5-----5--5-----5-----5----|--2-----2--2----------------|
D|----------------4------------|--3-----------3-------------|--0-------------------------|
A|--3--------------------------|----------------------------|----------------------------|
E|-----------------------------|----------------------------|----------------------------|


    E                            Am
e|--4----1----0----------------|-0-----0-------------------------------------------------|
B|-----------------3------1H3--|----3----------1-----1-----------------------------------|
G|-----------------------------|---------------2-----2-----------2-----------------------|
D|-----------------------------|----------------------------2----------------------------|
A|-----------------------------|---------------------------------------3-----------------|
E|--0--------------------------|---------------------------------------------------------|


   Am                             Dm                           Am
e|--------------0-----0--------|-----------1-----3----------|--0--------------------0----|
B|--------------1-----1--3-----|-----3-----1-----1----------|--1-------------1---3-------|
G|-----------2-----2-----4-----|-----4----------------------|--2--------2----------------|
D|-----------------------------|----------------------------|----------------------------|
A|--0.-------------------------|-----------------------0----|--0-------------------------|
E|-----------------------------|--0-----0-----0-------------|----------------------------|

    Dm                           Am                            Dm  
e|----------------------------|--0-------------0-----0------|------------1-----3----0----|
B|--3--3.----0--------3---1---|--1-------------1-----1------|--3---3-----1-----1----1----|
G|--1--1-----1----------------|--2----------2-----2---------|--4---4---------------------|
D|----------------------------|-----------------------------|----------------------------|
A|----------------------------|--0--------------------------|----------------------------|
E|-----0-----0----------------|-----------------------------|------0---------------------|


    Am                           Dm
e|--0-----0----------------0--|----------------------------|------------------------------|
B|-----1-----------1---3------|--3--3-----0-----------0----|----------------0-------------|
G|-------------2--------------|--1--1-----1----------------|--2---1---2----------2----4---|
D|----------------------------|-------------------2--------|------------------------------|
A|----------------------------|----------------------------|--0---------------------------|
E|----------------------------|-----0-----0----------------|----------------4-------------|


                                                              E  LET RING
e|----------------------------|--0------------------3---1--|------------------------------|
B|--1----0--1--3--------1--3--|----------0-----------------|------------------------------|
G|----------------------------|--------1-------------------|--1---------------------------|
D|----------------------------|-----2----------------------|--2---------------------------|
A|----------------------------|----------------------------|--2---------------------------|
E|--3----------2--------------|--1-------------------------|------------------------------|             
Submit corrections


        El Farol lessons Hard to play? Try these video lessons and learn fast El Farol lessons
        
↑ Back to top | Tablatures and chords for acoustic guitar and electric guitar, ukulele, drums are parodies/interpretations of the original songs. You may use it for private study, scholarship, research or language learning purposes only