» » »

Sandwich - View Master Bass

Artists:  A B C D E F G H I J K L M N O P Q R S T U V W X Y Z # 

View Master Bass

(ver. 1) Click to play this song!
Sandwich
 Rating:
4/5 (4 votes)
                View Master - Sandwich

Into/Verse:
G----------------------------------------|------------------------------|
D----------------------------------------|------------------------------|
A---9-9-9--------------------------------|--9-9-9-----------------------|
E----------5-5-5--7-7-7--2-2-2--5-5-5-5--|---------5-5-5--7-7-7-7-7-7---|

Pre-Chorus:
G---------------|
D---------------| 
A---------------| 
E--7-8-9--------|

Chorus/Bridge:
G---------------------|
D---------------------|
A--9-9-9--------------| Just listen to the song for the timing.
E--------5-7-8--------|

Yun lang, paulit ulit lang yan just listen to the song.

Fashyown. :)
            
Submit corrections

↑ Back to top | Tablatures and chords for acoustic guitar and electric guitar, ukulele, drums are parodies/interpretations of the original songs. You may use it for private study, scholarship, research or language learning purposes only