» » »

Sandwich - Cheese Factor Set To Nine Tabs

Artists:  A B C D E F G H I J K L M N O P Q R S T U V W X Y Z # 

Cheese Factor Set To Nine Tabs

(ver. 1) Click to play this song!
Sandwich
 Rating:
4/5 (4 votes)
                
research. 

Enjoy it...
Kayo na ang bahala sa order ng kanta...
Basta pakinggan nyo na lang ang nsa cd...

cia nga pla, Heart Evengelista... Pag kelangan m ng ???, and2
lang ako sa cotabato... hanapin m nlng ako d2...


Standard Tuning
(EADGBe)

Intro/Verse
e|--------------------------------------|
B|--------------------------------------|
G|-------1-2-2--------------------------|
D|-----2-------2-0-2-0------------------|
A|---------------------2-0-2-0----------|
E|--0--------------------------3h5-0----|

Chorus
Gtr.1
e|-------------------------------|
B|-------------------------------|
G|----------5---------------7----|
D|--5-------5-------9-------7----|
A|--5-------3-------9-------5----|
E|--3---------------7------------|

Gtr.2 play these chord many times
e|-------------------------------|
B|-------------------------------|
G|--12---------------------------|
D|-------------------------------|
A|--10---------------------------|
E|-------------------------------|


Pls rate this tab...
Comments are appreciated... 
            
Submit corrections

↑ Back to top | Tablatures and chords for acoustic guitar and electric guitar, ukulele, drums are parodies/interpretations of the original songs. You may use it for private study, scholarship, research or language learning purposes only