» » »

Sanctus Real - Audience Of One Tabs

Artists:  A B C D E F G H I J K L M N O P Q R S T U V W X Y Z # 

Audience Of One Tabs

(ver. 1) Click to play this song!
Sanctus Real
 Rating:
4/5 (4 votes)

 Audience Of One lessons Tabs too difficult? Try these video lessons and learn fast
 
                

lead intro:
e----------------------------------|
B----------------------------------|
G---------------1111-111111-99-999-|
D-99-999-00-000-1111-111111-99-999-|
A-99-999-00-000-9-9--9-9-9--77-777-|
D-99-999-00-000--------------------|
  **     **     * *         **
back-up intro:
e---------------------------------|
B---------------------------------|
G-------------11111111-99-99------|
D-99-99-00-00-11111111-99-99------|
A-99-99-00-00-9-9-9-9--77-77------|
D-99-99-00-00---------------------|
  **    **    * *      **

verse: Guitar 1(guitar 2 doesnt play)
e-------------------------------------------------------------------------|
B-------------------------------------------------------------------------|
G-77-7-77-777-7-7-44-4-44-444-4-4-66-6-666-7-6-9-66-777-666-777-666-77-99-|
D-77-7-77-777-7-7-44-4-44-444-4-4-77-7-777-7-7-7-77-777-666-777-666-77-99-|
A-55-5-55-555-5-5-22-2-22-222-2-2-------------------555-444-555-444-55-77-|
D-------------------------------------------------------------------------|
  **   **     *   **   **     *   **   ***

pre chorus(guitar 1 and 2)
e------------------------------------------|
B------------------------------------------|
G------------------------------------------|
D-00000000-77777777-55555555-55555---------|
A-00000000-77777777-55555555-55555---------|
D-00000000-77777777-55555555-55555---------|
                             *****
chorus is the same but with out the PM at the end, it ends like this:

D-4h5-55-5h7-77-|
A-4h5-55-5h7-77-|
D-4h5-55-5h7-77-|

bridge: lead
e----------------------------------------|
B----------------------------------------|
G---7---2---4-----2----------------------|
D--7-7-4-4-4-4---2-2---------------------|
A-5---4---2---2-0------------------------|
D--------------------4h55p4h5-4h55-55h77-|

bridge: back-up
Palm mute the chord that the lead picks through....
D5  Fm#  B5  A2

SOLO!!
lead..
A-9-7-5-2-5-5-12-9-9-7-5-2-5-let ring
back up..
D-22222222-55555555-55555-|
A-22222222-55555555-55555-|
D-22222222-55555555-55555-|
                    *****

chorus....

end..
pretty much the same as bridge chords but the lead does this:

G------66-77-----66-77------66-77/9/11-|
D-55-77-----55-77------55-77-----------|

end on:
lead
D-0
A-0
D-0

G-7
D-7
A-5

really great song my youthgroup friends love it thanx for looking ast it be sure to vote thanx
            
Submit corrections


        Audience Of One lessons Hard to play? Try these video lessons and learn fast Audience Of One lessons
        
↑ Back to top | Tablatures and chords for acoustic guitar and electric guitar, ukulele, drums are parodies/interpretations of the original songs. You may use it for private study, scholarship, research or language learning purposes only