Home » S » Sam Roberts »

Sam Roberts - The Gate Tabs

Artists:  A B C D E F G H I J K L M N O P Q R S T U V W X Y Z # 

The Gate Tabs

(ver. 1) Click to play this song!
Sam Roberts
 Rating:
4.3/5 (24 votes)
                [Intro]
 
Played quietly several times over the organ and bass intro, builds in volume
 
E|----------------|
B|----------------|
G|-12-12-12-12-12-|
D|----------------|
A|----------------|
E|----------------|
 
0:26 Played twice
 
E|------------------------------------------------------------|
B|----------15----15----17----------------15----15------------|
G|-14h16-16----16----16----16-16-14h16-16----16----16-17-16-16 |
D|------------------------------------------------------------|
A|------------------------------------------------------------|
E|------------------------------------------------------------|
 
0:38
 
E|-------------------------------------------------------------|
B|-18p15----------------------------------15----15----15-------|
G|-------17p16-16-17-16-17-16-16-17p16-16----17----17----17-17-|
D|-------------------------------------------------------------|
A|-------------------------------------------------------------|
E|-------------------------------------------------------------|
 
0:45
 
E|-------------------------------------------------------|
B|-18p15-------------------------------------------------|
G|-------17p16-16-16-16-16-16-16-14/16-16-16-16-16-16-16-|
D|-------------------------------------------------------|
A|-------------------------------------------------------|
E|-------------------------------------------------------|
 
0:51 listen to song for timing - this section is also played during the bridge "listen to the ...." sections
see below
 
 *played 5 times
  *           *
E|-15\13----12-------13-13-13-13-13-|
B|-17\15----13----------------------|
G|----------------------------------|
D|----------------------------------|
A|----------------------------------|
E|----------------------------------|
 
 
[Bridge] "Listen to the...missing in the city"
 
 
E|-15-13----12---|
B|-17\15----13---|
G|---------------|
D|---------------|
A|---------------|
E|---------------|
 
[Breakdown]
 
Begins at 3:10 - mellow bends, best to listen to song for timing              hammer/pulls at 4:31
 
E|-------------------------------------------------------------------|------------------|
B|-15\-18p15----------------------------------15b17-12b13-15b17-12b13|-12h13p12---------|
G|----------17-------------------------12b14-------------------------|---------12h14p12-|
D|-------------17----15h17p15----15h17-------------------------------|------------------|
A|----------------------------17-------------------------------------|------------------|
E|-------------------------------------------------------------------|------------------|
 
[Solo] 3:58
 
E|---------------------------------------------------------------------|
B|--3-3--3--3--3--3-3----------3--3--3---------------------------------|
G|--5b7--7--7--7--7r5p3-----3--3--3--3--5--3--5b7--7r5--3--5--3--------|
D|-----------------------5----------------------------------------5----|
A|---------------------------------------------------------------------|
E|---------------------------------------------------------------------|
 
[Outro] 5:24
 
Tremolo picked, I believe they are 16th notes.
 
E|--15--13--12--10--8--12--10--8--12--10--13--12--|
B|------------------------------------------------|
G|------------------------------------------------|
D|------------------------------------------------|
A|------------------------------------------------|
E|------------------------------------------------|
 
5:36
 
Unison bends, he picks quite erratically on the bend, hits it roughly 8 times.
 
E|------15/17-----|
B|---------20b22--|
G|----------------|
D|----------------|
A|----------------|
E|----------------|
 
 
5:42
 
Tremolo picked final lick
 
E|--15--13--12--10--8--12--10--8--12--10--13--15--17--|
B|----------------------------------------------------|
G|----------------------------------------------------|
D|----------------------------------------------------|
A|----------------------------------------------------|
E|----------------------------------------------------|
            
Submit corrections

↑ Back to top | Tablatures and chords for acoustic guitar and electric guitar, ukulele, drums are parodies/interpretations of the original songs. You may use it for private study, scholarship, research or language learning purposes only