Home » S » Sam Cooke »

Sam Cooke - You Send Me Tabs

Artists:  A B C D E F G H I J K L M N O P Q R S T U V W X Y Z # 

You Send Me Tabs

(ver. 1) Click to play this song!
Sam Cooke
              1st - 3rd Verses
  Q=96(8=s8)
           $
               G     Em7    Am7   D7
 4/4
  Gtr I (Clean El. Gtr.)
  W            H     H      H     H
|----------||--3----------|-5--------------|
|----------||o-0-----3----|-5-----3--------|
|----------||--0-----0----|-5-----5--------|
|----------||--0-----2----|-5-----4--------|
|----------||o-2-----2----|-------5--------|
|----------||--3-----0----|-5--------------|
|
| Gtr II (Clean El. Gtr.)
|                                    |-3-|
| W            Q  Q  H      Q  Q  Q  E E E
|----------||-------------|----------------|
|----------||o------------|----------------|
|----------||-------------|----------------|
|----------||--5----------|-2--------0-2-4-|
|----------||o------------|----------------|
|----------||-------------|----------------|


                                                   To Coda
  G    Em7    Am7   D7         G    Em7    Am7   D7
  H    H      H     H          H    H      H     H
|-3---------|-5--------------|-3---------|-5----------------|
|-0----3----|-5-----3--------|-0----3----|-5-----3----------|
|-0----0----|-5-----5--------|-0----0----|-5-----5----------|
|-0----2----|-5-----4--------|-0----2----|-5-----4----------|
|-2----2----|-------5--------|-2----2----|-------5----------|
|-3----0----|-5--------------|-3----0----|-5----------------|
|
|                      |-3-|                        |-3-|
| H    H      Q  Q  Q  E E E   H    H      Q  Q  Q  E E E
|-----------|----------------|-----------|------------------|
|-----------|----------------|-----------|------------------|
|-----------|----------------|-----------|------------------|
|-5---------|-2--------0-2-4-|-5---------|-2--------0-2-4---|
|-----------|----------------|-----------|------------------|
|-----------|----------------|-----------|------------------|


  1.                            2.
  G    Em7    Am7   D7           G    C      G    G6
  H    H      H     H            H    H      H    H
|-3---------|-5---------------||-3---------|-3----0----||
|-0----3----|-5-----3--------o||-0----1----|-0----0----||
|-0----0----|-5-----5---------||-0----0----|-0----0----||
|-0----2----|-5-----4---------||-0----2----|-0----0----||
|-2----2----|-------5--------o||-2----3----|-2----2----||
|-3----0----|-5---------------||-3---------|-3----3----||
|
|                      |-3-|
| H    H      Q  Q  Q  E E E     W           W
|-----------|-----------------||-----------|-----------||
|-----------|----------------o||-----------|-----------||
|-----------|-----------------||-----------|-----------||
|-5---------|-2--------0-2-4--||-----------|-----------||
|-----------|----------------o||-----------|-----------||
|-----------|-----------------||-----------|-----------||


 Bridge
  $$
  Am7   D7b9    G/D           Am7   D7b9    G/D
  Q  Q  Q  Q    Q  Q  Q  Q    Q  Q  Q  Q    Q  Q  Q  Q
|-5--5--5-----|-------------|-5--5--5-----|-------------|
|-5--5--4-----|-3--3--3-----|-5--5--4-----|-3--3--3-----|
|-5--5--5-----|-4--4--4-----|-5--5--5-----|-4--4--4-----|
|-5--5--4-----|-5--5--5-----|-5--5--4-----|-5--5--5-----|
|-------5-----|-5--5--5-----|-------5-----|-5--5--5-----|
|-5--5--------|-------------|-5--5--------|-------------|


                          To Dbl. Coda            D.S. al Coda
  Am7   D7b9    G  F  E7      Am7          N.C.
                                           |-3-|
  Q  Q  Q  Q    Q  Q  Q  Q    Q  Q  H      E E E E E Q  Q
|-5--5--5-----|-3--1--0--0--|-5----------|----------------------||
|-5--5--4-----|-3--1--0--0--|-5----------|-----------3----------||
|-5--5--5-----|-4--2--1--1--|-5----------|-2-2-2-2-2------------||
|-5--5--4-----|-5--3--0--0--|-5----------|----------------------||
|-------5-----|-5--3--2--2--|------------|----------------------||
|-5--5--------|-3--1--0--0--|-5----------|----------------------||
|
| Gtr II
|                                                       |-3-|
| W             W             W            H         Q  E E E
|-------------|-------------|------------|----------------------||
|-------------|-------------|------------|----------------------||
|-------------|-------------|------------|----------------------||
|-------------|-------------|------------|--------------0-2-4---||
|-------------|-------------|------------|----------------------||
|-------------|-------------|------------|----------------------||


                          4th Verse
  &
  G    Em7    Am7  D7         G        Em7       Am7     D7
  H    H      H    H       Q  Q     Q  Q    Q    Q   Q   Q
|-3---------|-5---------||----3-----------|------5----------|
|-0----3----|-5----3----||----0--------3--|------5-------3--|
|-0----0----|-5----5----||----0--------0--|------5-------5--|
|-0----2----|-5----4----||----0--------2--|------5-------4--|
|-2----2----|------5----||----2--------2--|--------------5--|
|-3----0----|-5---------||----3--------0--|------5----------|
|
| Gtr II
|                             |-3-|
| W           W            Q  E E E H       E Q.    +H
|-----------|-----------||----------------|-----------------|
|-----------|-----------||-5----3-5-3-----|-----------------|
|-----------|-----------||----------------|-4-2-----(2)-----|
|-----------|-----------||----------------|-----------------|
|-----------|-----------||----------------|-----------------|
|-----------|-----------||----------------|-----------------|


     G        Em7       Am7     D7      G        Em7       Am7     D7
  Q  Q     Q  Q    Q    Q   Q   Q    Q  Q     Q  Q    Q    Q   Q   Q
|----3-----------|------5----------|----3-----------|------5------------|
|----0--------3--|------5-------3--|----0--------3--|------5-------3----|
|----0--------0--|------5-------5--|----0--------0--|------5-------5----|
|----0--------2--|------5-------4--|----0--------2--|------5-------4----|
|----2--------2--|--------------5--|----2--------2--|--------------5----|
|----3--------0--|------5----------|----3--------0--|------5------------|
|
|    |-3-|                              |-3-|
| Q  E E E H       E Q.    +H        Q  E E E H       E Q.    +H
|----------------|-----------------|----------------|-------------------|
|-5----3-5-3-----|-----------------|-5----3-5-3-----|-------------------|
|----------------|-4-2-----(2)-----|----------------|-4-2-----(2)-------|
|----------------|-----------------|----------------|-------------------|
|----------------|-----------------|----------------|-------------------|
|----------------|-----------------|----------------|-------------------|


  G     C/E     Am7   D7         G        Em7       Am7     D7
  Q  Q  Q  Q    Q  Q  Q  Q    Q  Q     Q  Q    Q    Q   Q   Q
|-3--3--------|-5--5--------|----3-----------|------5----------|
|-0--0--1--1--|-5--5--3--3--|----0--------3--|------5-------3--|
|-0--0--0--0--|-5--5--5--5--|----0--------0--|------5-------5--|
|-0--0--2--2--|-5--5--4--4--|----0--------2--|------5-------4--|
|-2--2--3--3--|-------5--5--|----2--------2--|--------------5--|
|-3--3--0--0--|-5--5--------|----3--------0--|------5----------|
|
|                                |-3-|
| W             W             Q  E E E H       E Q.    +H
|-------------|-------------|----------------|-----------------|
|-------------|-------------|-5----3-5-3-----|-----------------|
|-------------|-------------|----------------|-4-2-----(2)-----|
|-------------|-------------|----------------|-----------------|
|-------------|-------------|----------------|-----------------|
|-------------|-------------|----------------|-----------------|


     G        Em7       Am7     D7      G        Em7       Am7     D7
  Q  Q     Q  Q    Q    Q   Q   Q    Q  Q     Q  Q    Q    Q   Q   Q
|----3-----------|------5----------|----3-----------|------5------------|
|----0--------3--|------5-------3--|----0--------3--|------5-------3----|
|----0--------0--|------5-------5--|----0--------0--|------5-------5----|
|----0--------2--|------5-------4--|----0--------2--|------5-------4----|
|----2--------2--|--------------5--|----2--------2--|--------------5----|
|----3--------0--|------5----------|----3--------0--|------5------------|
|
|    |-3-|                              |-3-|
| Q  E E E H       E Q.    +H        Q  E E E H       E Q.    +H
|----------------|-----------------|----------------|-------------------|
|-5----3-5-3-----|-----------------|-5----3-5-3-----|-------------------|
|----------------|-4-2-----(2)-----|----------------|-4-2-----(2)-------|
|----------------|-----------------|----------------|-------------------|
|----------------|-----------------|----------------|-------------------|
|----------------|-----------------|----------------|-------------------|


                                                             Outro
               D.S.S. al Dbl. Coda &&
     G        Em7       Am7     D7    Am7         D7          G    Em7
                                      |-3-| |-3-|
  Q  Q     Q  Q    Q    Q   Q   Q     E E E E E E Q  Q        H    H
|----3-----------|------5----------||-5-5-5-5-5-5----------||-3---------|
|----0--------3--|------5-------3--||-5-5-5-5-5-5-3--------||-0----3----|
|----0--------0--|------5-------5--||-5-5-5-5-5-5-5--------||-0----0----|
|----0--------2--|------5-------4--||-5-5-5-5-5-5-4--------||-0----2----|
|----2--------2--|--------------5--||-------------5--------||-2----2----|
|----3--------0--|------5----------||-5-5-5-5-5-5----------||-3----0----|
|
|    |-3-|                                           |-3-|
| Q  E E E H       E Q.    +H         H           Q  E E E    H    H
|----------------|-----------------||----------------------||-----------|
|-5----3-5-3-----|-----------------||----------------------||-----------|
|----------------|-4-2-----(2)-----||----------------------||-0---------|
|----------------|-----------------||----------------0-2-4-||------2----|
|----------------|-----------------||----------------------||-----------|
|----------------|-----------------||----------------------||-----------|


  Am7  D7         G    Em7    Am7  D7         G    Em7
  H    H          H    H      H    H          H    H
|-5-------------|-3---------|-5-------------|-3---------|
|-5----3--------|-0----3----|-5----3--------|-0----3----|
|-5----5--------|-0----0----|-5----5--------|-0----0----|
|-5----4--------|-0----2----|-5----4--------|-0----2----|
|------5--------|-2----2----|------5--------|-2----2----|
|-5-------------|-3----0----|-5-------------|-3----0----|
|
|         |-3-|                       |-3-|
| H    Q  E E E   H    H      H    Q  E E E   H    H
|---------------|-----------|---------------|-----------|
|---------------|-----------|---------------|-----------|
|-2----2--------|-0---------|-2----2--------|-0---------|
|---------0-2-4-|------2----|---------0-2-4-|------2----|
|---------------|-----------|---------------|-----------|
|---------------|-----------|---------------|-----------|


  Am7  D7         G    Em7    G       Em/D
  H    H          H    H      H    H           W
|-5-------------|-3---------|-3------------|---------*|
|-5----3--------|-0----3----|-0------------|---------*|
|-5----5--------|-0----0----|-0------------|---------*|
|-5----4--------|-0----2----|-0------------|---------*|
|------5--------|-2----2----|-2------------|---------*|
|-5-------------|-3----0----|-3------------|---------*|
|
|         |-3-|
| H    Q  E E E   W           H    Q    Q     +W
|---------------|-----------|---------^12--|-(12)----*|
|---------------|-----------|---------^12--|-(12)----*|
|-2----2--------|-----------|---------^12--|-(12)----*|
|---------0-2-4-|-----------|---------^12--|-(12)----*|
|---------------|-----------|--------------|---------*|
|---------------|-----------|--------------|---------*|            
Submit corrections

↑ Back to top | Tablatures and chords for acoustic guitar and electric guitar, ukulele, drums are parodies/interpretations of the original songs. You may use it for private study, scholarship, research or language learning purposes only