Home » S » Sam Cooke »

Sam Cooke - Shake Bass

Artists:  A B C D E F G H I J K L M N O P Q R S T U V W X Y Z # 

Shake Bass

(ver. 1) Click to play this song!
Sam Cooke
Intro Chorus:
G|-----------------------------------------------|
D|-----------------------------------------------|
A|-3--------3--------3--------3--1---3--1---3--1-|
E|-----------------------------------------------|

Verse 1:
G|----------------------------------------------------------------|
D|--------------------------------------------3--3---1---3--3---1-|
A|-3--3---1---3--3---1---3--3---1---3--3---1-------3----------3---|
E|------3----------3----------3----------3------------------------|

G|-------------------------------------------|
D|----------------------5--5---3---5--5----3-|
A|-3--3---1---3--3---1-------5-----------5---|
E|------3----------3-------------------------|

Chorus:
G|-----------------------------------------------|
D|-----------------------------------------------|
A|-3--------3--------3--------3--1---3--1---3--1-|
E|-----------------------------------------------|

Verse 2:
G|----------------------------------------------------------------|
D|--------------------------------------------3--3---1---3--3---1-|
A|-3--3---1---3--3---1---3--3---1---3--3---1-------3----------3---|
E|------3----------3----------3----------3------------------------|

G|-------------------------------------------|
D|----------------------5--5---3---5--5----3-|
A|-3--3---1---3--3---1-------5-----------5---|
E|------3----------3-------------------------|

Chorus:
G|-----------------------------------------------|
D|-----------------------------------------------|
A|-3--------3--------3--------3--1---3--1---3--1-|
E|-----------------------------------------------|

Middle 8:
G|---------------------------------------------------------------|
D|-3--3---1---3--3---1-----------------------3--3---1---3--3---1-|
A|------3----------3----3--3---1---3--3---1-------3----------3---|
E|---------------------------3----------3------------------------|

G|--------------------|
D|-5--3---5--3---5--3-|
A|--------------------|
E|--------------------|

Verse 3:
G|----------------------------------------------------------------|
D|--------------------------------------------3--3---1---3--3---1-|
A|-3--3---1---3--3---1---3--3---1---3--3---1-------3----------3---|
E|------3----------3----------3----------3------------------------|

G|-------------------------------------------|
D|----------------------5--5---3---5--5----3-|
A|-3--3---1---3--3---1-------5-----------5---|
E|------3----------3-------------------------|

Chorus:
G|-----------------------------------------------|
D|-----------------------------------------------|
A|-3--------3--------3--------3--1---3--1---3--1-|
E|-----------------------------------------------|

Interlude:
G|---------------------------------------------------------------|
D|-3--3---1---3--3---1-----------------------3--3---1---3--3---1-|
A|------3----------3----3--3---1---3--3---1-------3----------3---|
E|---------------------------3----------3------------------------|

G|--------------------|
D|-5--3---5--3---5--3-|
A|--------------------|
E|--------------------|

Verse 4:
G|----------------------------------------------------------------|
D|--------------------------------------------3--3---1---3--3---1-|
A|-3--3---1---3--3---1---3--3---1---3--3---1-------3----------3---|
E|------3----------3----------3----------3------------------------|

G|-------------------------------------------|
D|----------------------5--5---3---5--5----3-|
A|-3--3---1---3--3---1-------5-----------5---|
E|------3----------3-------------------------|

Chorus:
G|-----------------------------------------------|
D|-----------------------------------------------|
A|-3--------3--------3--------3--1---3--1---3--1-|
E|-----------------------------------------------|

Outro:  (Repeat Outro To Fade/End)
G|-------------------------------------------|
D|-------------------------------------------|
A|-3--3---1---3--3---1---3--3---1---3--3---1-|
E|------3----------3----------3----------3---|

            
Submit corrections

↑ Back to top | Tablatures and chords for acoustic guitar and electric guitar, ukulele, drums are parodies/interpretations of the original songs. You may use it for private study, scholarship, research or language learning purposes only