Home » S » Sam Cooke »

Sam Cooke - Only Sixteen Bass

Artists:  A B C D E F G H I J K L M N O P Q R S T U V W X Y Z # 

Only Sixteen Bass

(ver. 1) Click to play this song!
Sam Cooke
Verse 1:
                  She was only sixteen...
G|---------------|-------------------------------------------------|
D|-GUITAR SINGLE-|---------6-------------------------------6-------|
A|-----CHORD-----|----------------8----4----6----4----6-------6--8-|
E|---------------|-------------------------------------------------|

G|---------------------------------------|
D|-6-----------------------------6-------|
A|------8----4----6----4----6-------6--8-|
E|---------------------------------------|

Verse 2:
G|------------------------------------------------------------------------|
D|-6-----------------------------6--------6--------------------------6----|
A|------8----4----6----4----6-------6--8-------8----4----6----4---6-----6-|
E|------------------------------------------------------------------------|

Bridge:
G|----------------------------------------------------------|
D|-----------6-------------------6-------------------6------|
A|------6---------8---------6---------6---------6---------8-|
E|-6-------------------6-----------------8-6----------------|

G|--------------------------|
D|--------------------------|
A|-------------6--6--6-4-3--|
E|-6--6--6--6-------------6-|

Verse 3:
G|------------------------------------------------------------------------|
D|------3------------------------6--------6--------------------------6----|
A|-----------4----6----4----6-------6--8-------8----4----6----4---6-----6-|
E|-4----------------------------------------------------------------------|

Bridge:
G|----------------------------------------------------------|
D|-----------6-------------------6-------------------6------|
A|------6---------8---------6---------6---------6---------8-|
E|-6-------------------6-----------------8-6----------------|

G|--------------------------|
D|--------------------------|
A|-------------6--6--6-4-3--|
E|-6--6--6--6-------------6-|

Verse 4:
G|------------------------------------------------------------------------|
D|------3-----------------------6--------6-------------------------6------|
A|----------4----6----4----6-------6--8------8----4----6----4---6----6--8-|
E|-4----------------------------------------------------------------------|

Verse 5:                                          Song Fades Out)
G|----------------------------------------------------|
D|-6-----------------------------6--------6-----------|
A|------8----4----6----4----6-------6--8-------8----4-|
E|----------------------------------------------------|

            
Submit corrections

↑ Back to top | Tablatures and chords for acoustic guitar and electric guitar, ukulele, drums are parodies/interpretations of the original songs. You may use it for private study, scholarship, research or language learning purposes only