Home » S » Sam Cooke »

Sam Cooke - Frankie And Johnny Tabs

Artists:  A B C D E F G H I J K L M N O P Q R S T U V W X Y Z # 

Frankie And Johnny Tabs

(ver. 1) Click to play this song!
Sam Cooke
[Verse]
   C  +     +     +     +       +     +  G  +        C  +     +     +     +       +     +  C7 +
E|----0--3--5----\3-p0-----|-----------------------|----0--3--5----\3-p0-----|-----------------------|
B|-1--------------------1--|----1------------------|-1--------------------1--|-----------------------|
G|-------------------------|----------0-----0------|-------------------------|----0-----0-----3------|
D|-------2-----------2-----|-------2-----------0---|-------2-----------2-----|-------2-----------2---|
A|-3-----------------------|-3---------------------|-3-----------------------|-3---------------------|
E|-------------3-----------|-------------3---------|-------------3-----------|-------------3---------|
 
   F  +     +     +     +       +     +     +     +       +     +     +        C  +     +     +
E|-1-h3--5--8-----10---\5--|-8--8--------------5-/7--|-8-----8--8--7---\-5---|-3-------p0--0---------|
B|-------------------------|----------6--------------|-----------------------|-------------------4-\-|
G|-------------------------|----------------0--------|----0-----------0------|----0-----------0------|
D|-------0-----------0-----|-------0-----------------|-------0---------------|-------2-----------0---|
A|-------------------------|-------------------------|-----------------------|-3-----------3---------|
E|-1-----------8-----------|-8-----------8-----5-/7--|-8-----------7---\-5---|-----------------------|
 
   G  +     +     +           +     +     +        C  +     +     +           +     +  G  +
E|-----------------------|----5-----3--5-\3-p0---|-----------------------|-----------------------|
B|-3---------------------|-----------------------|-1---------------------|-----------------------|
G|----0-----0-----0------|-----------------------|----0-----0-----0------|----0-----0-----0------|
D|-------0-----------0---|-------0-----------0---|-------2-----------2---|-------2-----------0---|
A|-------------2---------|-------------0---------|-3---------------------|-3---------------------|
E|-3---------------------|-3---------------------|-------------3---------|-------------3---------|
 
[Verse]
   C  +     +     +     +       +     +  G  +        C  +     +     +     +       +     +  C7 +
E|-------0--1--------0-----|-----------------------|-------0--1--------0-----|-----------------------|
B|----1-----------------1--|----1------------------|----1-----------------1--|-----------------------|
G|-0--------------0--------|----------0-----0------|-0--------------0--------|----0-----0-----3------|
D|-------2-----------2-----|-------2-----------0---|-------2-----------2-----|-------2-----------2---|
A|-3-----------------------|-3---------------------|-3-----------------------|-3---------------------|
E|-------------3-----------|-------------3---------|-------------3-----------|-------------3---------|
 
   F  +     +  F  +           +     +     +     +       +     +     +        C  +     +     +
E|-------1--3----/5------|-5--5--------------1-h3--|-5-----5--5--3----p1---|-0--------3--3-----2---|
B|----1------------------|-------------------------|-----------------------|-1--------1--1---------|
G|-2-----------------5---|----------5-----5--------|----5-----------0------|----0-----------0------|
D|-------0---------------|-------3-----------0-----|-------3-----------0---|-------2-----------0---|
A|-------------0---------|-0-----------0-----------|-0-----------0---------|-3-----------3---------|
E|-1---------------------|-------------------------|-----------------------|-----------------------|
 
   G7 +     +     +           +     +     +        C  +     +     +           +     +  G  +
E|-1---------------------|----1--------1-----3---|-0---------------------|-----------------------|
B|-0---------------------|----0--------0-----0---|-1---------------------|-----------------------|
G|----0-----0-----0------|----------0-----0------|----0-----0-----0------|----0-----0-----0------|
D|-------0-----------0---|-------0-----------0---|-------2-----------2---|-------2-----------0---|
A|-------------2---------|-------------0---------|-3---------------------|-3---------------------|
E|-3---------------------|-3---------------------|-------------3---------|-------------3---------|
            
Submit corrections

↑ Back to top | Tablatures and chords for acoustic guitar and electric guitar, ukulele, drums are parodies/interpretations of the original songs. You may use it for private study, scholarship, research or language learning purposes only