Home » S » Sam Cooke »

Sam Cooke - Another Saturday Night Bass

Artists:  A B C D E F G H I J K L M N O P Q R S T U V W X Y Z # 

Another Saturday Night Bass

(ver. 1) Click to play this song!
Sam Cooke
[Intro Chorus] 

"Another Saturday night and I ain't got nobody..."
G|-------------------------------------------------------------|
D|-7--7--------------7--7---7--------7--7----------------------|
A|--------7-5--5---7----------7--7----------7-5--5---7-7-5-5---|
E|-----------------------------------------------------------5-|


[Verse 1]

 "I got in town a month ago..."
G|-------------------------------------------------------------|
D|-7--7---7----------7--7------------7--7----------------------|
A|----------7--7---7--------7-5--5----------7-5--5---7-7-5-5---|
E|-----------------------------------------------------------5-|


[Chorus]

 "Another Saturday night and I ain't got nobody..."
G|-------------------------------------------------------------|
D|-7--7--------------7--7---7--------7--7----------------------|
A|--------7-5--5---7----------7--7----------7-5--5---7-7-5-5---|
E|-----------------------------------------------------------5-|


[Verse 2]

"Another fella told me..."
G|-------------------------------------------------------------|
D|-7--7---7----------7--7------------7--7----------------------|
A|----------7--7---7--------7-5--5----------7-5--5---7-7-5-5---|
E|-----------------------------------------------------------5-|


[Chorus] 

"Another Saturday night and I ain't got nobody..."
G|-------------------------------------------------------------|
D|-7--7--------------7--7---7--------7--7----------------------|
A|--------7-5--5---7----------7--7----------7-5--5---7-7-5-5---|
E|-----------------------------------------------------------5-|


[Interlude]

"Here it is another weekend and I ain't got nobody..."
G|-------------------------------------------------------------|
D|-7--7---7----------7--7------------7--7----------------------|
A|----------7--7---7--------7-5--5----------7-5--5---7-7-5-5---|
E|-----------------------------------------------------------5-|


[Verse 3]

"It's hard on a fella..."
G|-------------------------------------------------------------|
D|-7--7---7----------7--7------------7--7----------------------|
A|----------7--7---7--------7-5--5----------7-5--5---7-7-5-5---|
E|-----------------------------------------------------------5-|


[Chorus] 

"Another Saturday night and I ain't got nobody..."
G|-------------------------------------------------------------|
D|-7--7--------------7--7---7--------7--7----------------------|
A|--------7-5--5---7----------7--7----------7-5--5---7-7-5-5---|
E|-----------------------------------------------------------5-|


(FADE)

[Chorus]

 "Another Saturday night and I ain't got nobody..."
G|-------------------------------------------------------------|
D|-7--7--------------7--7---7--------7--7----------------------|
A|--------7-5--5---7----------7--7----------7-5--5---7-7-5-5---|
E|-----------------------------------------------------------5-|            
Submit corrections

↑ Back to top | Tablatures and chords for acoustic guitar and electric guitar, ukulele, drums are parodies/interpretations of the original songs. You may use it for private study, scholarship, research or language learning purposes only