» » »

Saliva - Your Dispease Bass

Artists:  A B C D E F G H I J K L M N O P Q R S T U V W X Y Z # 

Your Dispease Bass

(ver. 1) Click to play this song!
Saliva
 Rating:
4/5 (4 votes)


 Your Dispease lessons Tabs too difficult? Try these video lessons and learn fast
 
                Saliva - Your dispease

bass tab


5-stringed bass
G D A E B

   INTRO
G-|---------------|----------------------|
D-|---------------|----------------------|
A-|---------------|----------------------|
E-|-2h3-20200-----|---02-2h3-20-200------|
B-|-----------222-|-2---------------2222-|
                                                                              
   VERSO
G-|----------------------|
D-|----------------------|
A-|----------------------|
E-|----0---02-2h3-3333-2-|
B-|-2----2---------------|
                                                                              
   CORO
G-|-------------------------|
D-|-------------------------|
A-|-------------------------|
E-|-------77777-55555-77777-|
B-|-22222-------------------|
                                                                              
   BREAK
G-|----------|
D-|----------|
A-|----------|
E-|----------|
B-|-22---2---|
                                                                              
   MIDDLE
G-|-----|-----------|
D-|-----|-----------|
A-|-----|-----------|
E-|-----|-2222-4444-|
B-|-2---|-----------|
                                                                              
   FIN
G-|-------|
D-|-------|
A-|-------|
E-|-------|
B-|-2-----|
                                                                              
Muchas congratulaciones Al Mejia, Al Anchor y a La Yaret porque un dia El Anchor se oculto
en la parte de atras de mi auto y El Mejia se sento adelante y cuando entro La Yarets El Anchor
salio de la parte trasera como loco y gritando y La Yarets grito a lo llama pero llama. ademas
de quedar traumada.

doky2007
            
Submit corrections



        Your Dispease lessons Hard to play? Try these video lessons and learn fast Your Dispease lessons
        
↑ Back to top | Tablatures and chords for acoustic guitar and electric guitar, ukulele, drums are parodies/interpretations of the original songs. You may use it for private study, scholarship, research or language learning purposes only