» » »

Saliva - Survival Of The Sickest Bass

Artists:  A B C D E F G H I J K L M N O P Q R S T U V W X Y Z # 

Survival Of The Sickest Bass

(ver. 1) Click to play this song!
Saliva
 Rating:
4/5 (4 votes)


 Survival Of The Sickest lessons Tabs too difficult? Try these video lessons and learn fast
 
                -------------------------------------------------------------------------------
			     SURVIVAL OF THE SICKEST - Saliva
-------------------------------------------------------------------------------


Tuning:Standard

Intro
G|-------------------|
D|-------------------|
A|-------------------| X3
E|--2-2-0-2-2-5-5-5--|

G|-------------------|
D|-------------------|
A|-------------------|
E|--2-2-0-2-2-0-0-0--|

G|-------------------|
D|-------------------|
A|-------------------| X3
E|--2-2-0-2-2-5-5-5--|

G|-------------------|
D|-------------------|
A|-------------------|
E|--2-2-0-2-2-0-0-0--|

VERSE
G|--------------------------------------|
D|--------------------------------------|
A|--------------------------------------| X2
E|-22222222-00000000-77777777-55555555--|

CHORUS
G|--------------------------------------|
D|--------------------------------------|
A|--------------------------------------| X2
E|-22222222-00000000-55555555-77777777--|

G|--------------------------------------|
D|--------------------------------------|
A|--------------------------------------| X2
E|-22222222-00000000-77777777-55555555--|

BRIDGE
G|-------------------|
D|-------------------|
A|-------------------| X3
E|--2-2-0-2-2-5-5-5--|

G|-------------------|
D|-------------------|
A|-------------------|
E|--2-2-0-2-2-0-0-0--|

VERSE
G|--------------------------------------|
D|--------------------------------------|
A|--------------------------------------| X2
E|-22222222-00000000-77777777-55555555--|

CHORUS
G|--------------------------------------|
D|--------------------------------------|
A|--------------------------------------| X2
E|-22222222-00000000-55555555-77777777--|

G|--------------------------------------|
D|--------------------------------------|
A|--------------------------------------| X2
E|-22222222-00000000-77777777-55555555--|

BRIDGE
G|--------------------------------------|
D|--------------------------------------|
A|--------------------------------------| 
E|-22222222-00000000-55555555-77777777--|

G|-----------------------------|
D|-----------------------------|
A|-----------------------------| 
E|-22222222-00000000-55555555--|

G|---------------------------|
D|---------------------------|
A|---------------------------| X2
E|-5-77-5-77-5-77-5-7-5-7--5-|

SOLO
G|--------------------------------------|
D|--------------------------------------|
A|--------------------------------------| X2
E|-22222222-00000000-77777777-55555555--|

G|-----------------|
D|-----------------|
A|-----------------| X3
E|-2~--0~--7~--5~--|

G|------------|
D|------------|
A|------------|
E|-2~--0~--7~-|

BREAKDOWN
G|--------------------------------------|
D|--------------------------------------|
A|--------------------------------------| X4
E|-22222222-00000000-77777777-55555555--|

G|-----------------------|
D|-----------------------|
A|-----------------------| 
E|-22222222-00000000-77--|

CHORUS
G|--------------------------------------|
D|--------------------------------------|
A|--------------------------------------| X2
E|-22222222-00000000-77777777-55555555--|

G|--------------------------------------|
D|--------------------------------------|
A|--------------------------------------| 
E|-22222222-00000000-55555555-77777777--|

G|-----------------------------|
D|-----------------------------|
A|-----------------------------| 
E|-22222222-00000000-55555555--|

G|---------------------------|
D|---------------------------|
A|---------------------------| X2
E|-5-77-5-77-5-77-5-7-5-7--5-|

OUTRO
G|-------------------------|
D|-------------------------|
A|-------------------------|
E|-2~-2~/--2~/--2~/----2~--|



| /  slide up
| \  slide down
| h  hammer-on
| p  pull-off
            
Submit corrections



        Survival Of The Sickest lessons Hard to play? Try these video lessons and learn fast Survival Of The Sickest lessons
        
↑ Back to top | Tablatures and chords for acoustic guitar and electric guitar, ukulele, drums are parodies/interpretations of the original songs. You may use it for private study, scholarship, research or language learning purposes only