Home » S » Saliva »

Saliva - Separated Self Tabs

Artists:  A B C D E F G H I J K L M N O P Q R S T U V W X Y Z # 

Separated Self Tabs

(ver. 1) Click to play this song!
Saliva
 Rating:
4.4/5 (17 votes)
                [Intro]
 
Eb|--------------------------------------|-------------------------------------|
Bb|--------------------------------------|-------------------------------------|
Gb|--------------------------------------|-------------------------------------|
Db|-------7---------7---7br8-------------|-------7---------7---7br8------------|
Ab|-----5---5-----5---5------------------|-----5---5-----5---5-----------------|
Db|-0---------8--------------------------|-5---------8-------------------------|
 
Eb|--------------------------------------|-------------------------------------|
Bb|--------------------------------------|-------------------------------------|
Gb|--------------------------------------|-----------5~------------------------|
Db|-------7---------7---7br8-------------|-------7-----------------------------|
Ab|-----5---5-----5---5------------------|-----5---5---------------------------|
Db|-0---------8--------------------------|-5---------8-------------------------|
 
   bends are added by second guitar, and last harmony note
 
 
 
[Verse 1]
 
Eb|--------------------------------------|-------------------------------------|
Bb|--------------------------------------|-------------------------------------|
Gb|--------------------------------------|-------------------------------------|
Db|-------7---------7--------------------|-------7---------7-------------------| play 3x
Ab|-----5---5-----5---5------------------|-----5---5-----5---5-----------------|
Db|-0---------8--------------------------|-5---------8-------------------------|
 
Eb|--------------------------------------|-------------------------------------|
Bb|--------------------------------------|-------------------------------------|
Gb|--------------------------------------|-----------5~------------------------|
Db|-------7---------7--------------------|-------7-----------------------------|
Ab|-----5---5-----5---5------------------|-----5---5---------------------------|
Db|-0---------8--------------------------|-5---------8-------------------------|
 
   intro bends come in half way through verse
 
 
    Light Overdub part:
Eb|--------------------8-----------------|
Bb|-10-----------------6-----------------|
Gb|--------------------------------------| play 4x (0:27 - end of verse)
Db|--------------------------------------|
Ab|--------------------------------------|
Db|--------------------------------------|
 
 
 
[PreVerse]
 
    mute as shown in first bar throughout
Eb|-------------------------------------|-------------------------------------|
Bb|-------------------------------------|-------------------------------------|
Gb|-------------------------------------|-------------------------------------|
Db|-----------------------------3-3-3-3-|-----------------------------8-8-8-8-| play 2x
Ab|-0-0----0-0----0-0----0-0----3-3-3-3-|-0-0----0-0----0-0----0-0----8-8-8-8-|
Db|-0-0----0-0----0-0----0-0----3-3-3-3-|-0-0----0-0----0-0----0-0----8-8-8-8-|
   * *    * *    * *    * *
 
 
[Chorus]
 
    Rhythm
Eb|-----------------------------------|-------------------------------------|
Bb|---------------1-------------------|-------------------------------------|
Gb|---------------3-------------------|-----------------0-------------------|
Db|-0-------------3-------------------|-3---------------1-------------------|
Ab|-0-------------1-------------------|-3---------------1-------------------|
Db|-0---------------------------------|-3---------------1-------------------|
 
Eb|-----------------------------------|-------------------------------------|
Bb|---------------3-------------------|-------------------------------------|
Gb|---------------5-------------------|-------------------------------------|
Db|-0-------------5-------------------|-3---------------7-------------------|
Ab|-0-------------3-------------------|-3---------------5-------------------|
Db|-0---------------------------------|-3---------------5-------------------|
 
    Lead Overdub
Eb|--------------------------|------------------------|------------------------|------------------------|
Bb|------8---10--------------|----10---8--------------|-----8---10-------------|-----6---8--------------|
Gb|-7------------------------|-7-----------------7----|-7----------------------|-5----------------------|
Db|--------------------------|------------------------|------------------------|------------------------|
Ab|--------------------------|------------------------|------------------------|------------------------|
Db|--------------------------|------------------------|------------------------|------------------------|
 
 
 
[PreVerse]
 
    Repeat of intro:
Eb|--------------------------------------|-------------------------------------|
Bb|--------------------------------------|-------------------------------------|
Gb|--------------------------------------|-------------------------------------|
Db|-------7---------7---7br8-------------|-------7---------7---7br8------------|
Ab|-----5---5-----5---5------------------|-----5---5-----5---5-----------------|
Db|-0---------8--------------------------|-5---------8-------------------------|
 
Eb|--------------------------------------|-------------------------------------|
Bb|--------------------------------------|-------------------------------------|
Gb|--------------------------------------|-----------5~------------------------|
Db|-------7---------7---7br8-------------|-------7-----------------------------|
Ab|-----5---5-----5---5------------------|-----5---5---------------------------|
Db|-0---------8--------------------------|-5---------8-------------------------|
 
   lat note uses light ring modulation effect
 
 
 
[Verse 2]
 
Eb|--------------------------------------|-------------------------------------|
Bb|--------------------------------------|-------------------------------------|
Gb|--------------------------------------|-------------------------------------|
Db|-------7---------7--------------------|-------7---------7-------------------| play 3x
Ab|-----5---5-----5---5------------------|-----5---5-----5---5-----------------|
Db|-0---------8--------------------------|-5---------8-------------------------|
 
Eb|--------------------------------------|-------------------------------------|
Bb|--------------------------------------|-------------------------------------|
Gb|--------------------------------------|-----------5~------------------------|
Db|-------7---------7--------------------|-------7-----------------------------|
Ab|-----5---5-----5---5------------------|-----5---5---------------------------|
Db|-0---------8--------------------------|-5---------8-------------------------|
 
   intro bends come in half way through verse
 
 
    Light Overdub part:
Eb|--------------------8-----------------|
Bb|-10-----------------6-----------------|
Gb|--------------------------------------| play 4x (0:27 - end of verse)
Db|--------------------------------------|
Ab|--------------------------------------|
Db|--------------------------------------|
 
 
 
[PreVerse 2]
 
Eb|-------------------------------------|-------------------------------------|
Bb|-------------------------------------|-------------------------------------|
Gb|-------------------------------------|-------------------------------------|
Db|-----------------------------3-3-3-3-|-----------------------------8-8-8-8-| play 2x
Ab|-0-0----0-0----0-0----0-0----3-3-3-3-|-0-0----0-0----0-0----0-0----8-8-8-8-|
Db|-0-0----0-0----0-0----0-0----3-3-3-3-|-0-0----0-0----0-0----0-0----8-8-8-8-|
 
 
 
[Chorus 2]
 
    Rhythm part - play these 4 bars twice
Eb|-----------------------------------|-------------------------------------|
Bb|---------------1-------------------|-------------------------------------|
Gb|---------------3-------------------|-----------------0-------------------|
Db|-0-------------3-------------------|-3---------------1-------------------|
Ab|-0-------------1-------------------|-3---------------1-------------------|
Db|-0---------------------------------|-3---------------1-------------------|
 
Eb|-----------------------------------|-------------------------------------|
Bb|---------------3-------------------|-------------------------------------|
Gb|---------------5-------------------|-------------------------------------|
Db|-0-------------5-------------------|-3---------------5-----3-5p3-5p3-0---|
Ab|-0-------------3-------------------|-3---------------5-----3-5p3-5p3-0---|
Db|-0---------------------------------|-3---------------5-----3-5p3-5p3-0---|
 
 
    Lead Overdub - play 2x
Eb|--------------------------|------------------------|------------------------|------------------------|
Bb|------8---10--------------|----10---8--------------|-----8---10-------------|-----6---8--------------|
Gb|-7------------------------|-7-----------------7----|-7----------------------|-5----------------------|
Db|--------------------------|------------------------|------------------------|------------------------|
Ab|--------------------------|------------------------|------------------------|------------------------|
Db|--------------------------|------------------------|------------------------|------------------------|
 
 
[Bridge]
 
    Rhythm
Eb|------------------------------|------------------------------|
Bb|------------------------------|------------------------------|
Gb|-7------/14-----10------12----|-7------/14-----10------12----|
Db|------------------------------|------------------------------|
Ab|-5------/12------8------10----|-5------/12------8------10----|
Db|------------------------------|------------------------------|
 
Eb|------------------------------|------------------------------|
Bb|------------------------------|------------------------------|
Gb|-7------/14-----10------12----|-7------9------10------12-----|
Db|------------------------------|------------------------------|
Ab|-5------/12------8------10----|-5------7-------8------10-----|
Db|------------------------------|------------------------------|
 
Eb|------------------------------------------|-----------------------------------------------|
Bb|-10---------------------------------------|-10--------------------10------10-13---10-13~--|
Gb|------12p10-12---10\9-10~--9----9---------|------12p10-12---10-12------12-----------------|
Db|-----------------------------12---12-10---|-----------------------------------------------|
Ab|------------------------------------------|-----------------------------------------------|
Db|------------------------------------------|-----------------------------------------------|
 
 
 
[Doubled Solo]
 
    Rhythm plays Chorus riff along with solo
Eb|-----------------------------|----------------------------|
Bb|-----------------------------|----------------------------|
Gb|-----------------------------|----------------------------|
Db|-----------------------7--8--|-7\5-5\3-2------------------|
Ab|-12---\5----12---\5----------|-------------3--5-----------|
Db|-----------------------------|----------------------------|
 
Eb|-13p12-----------------------------------------|---------------------13--15--|-17------------|
Bb|-------13-----------------------------------10-|-------13---15---17----------|---------------|
Gb|----------10~---------10-12-12b14-12p10-12~----|-/14~------------------------|---------------|
Db|---------------10/12---------------------------|-----------------------------|---------------|
Ab|-----------------------------------------------|-----------------------------|---------------|
Db|-----------------------------------------------|-----------------------------|---------------|
 
 
 
[Chorus 3]
 
    Rhythm part - play these 4 bars twice
Eb|-----------------------------------|-------------------------------------|
Bb|---------------1-------------------|-------------------------------------|
Gb|---------------3-------------------|-----------------0-------------------|
Db|-0-------------3-------------------|-3---------------1-------------------|
Ab|-0-------------1-------------------|-3---------------1-------------------|
Db|-0---------------------------------|-3---------------1-------------------|
 
Eb|-----------------------------------|-------------------------------------|
Bb|---------------3-------------------|-------------------------------------|
Gb|---------------5-------------------|-------------------------------------|
Db|-0-------------5-------------------|-3---------------5-----3-5p3-5p3-0---|
Ab|-0-------------3-------------------|-3---------------5-----3-5p3-5p3-0---|
Db|-0---------------------------------|-3---------------5-----3-5p3-5p3-0---|
 
 
    Lead Overdub - play 2x
Eb|--------------------------|------------------------|------------------------|------------------------|
Bb|------8---10--------------|----10---8--------------|-----8---10-------------|-----6---8--------------|
Gb|-7------------------------|-7-----------------7----|-7----------------------|-5----------------------|
Db|--------------------------|------------------------|------------------------|------------------------|
Ab|--------------------------|------------------------|------------------------|------------------------|
Db|--------------------------|------------------------|------------------------|------------------------|
 
 
[Outro Chorus]
 
Eb|-----------------------------------|-------------------------------------|
Bb|---------------1-------------------|-------------------------------------|
Gb|---------------3-------------------|-----------------0-------------------|
Db|-0-------------3-------------------|-3---------------1-------------------|
Ab|-0-------------1-------------------|-3---------------1-------------------|
Db|-0---------------------------------|-3---------------1-------------------|
 
Eb|-----------------------------------|-------------------------------------|
Bb|---------------3-------------------|-------------------------------------|
Gb|---------------5-------------------|-------------------------------------|
Db|-0-------------5-------------------|-3--3----3--3-----5------------------|
Ab|-0-------------3-------------------|-3--3----3--3-----5------------------|
Db|-0---------------------------------|-3--3----3--3-----5------------------|
            
Submit corrections

↑ Back to top | Tablatures and chords for acoustic guitar and electric guitar, ukulele, drums are parodies/interpretations of the original songs. You may use it for private study, scholarship, research or language learning purposes only