» » »

Saliva - Lost Tabs

Artists:  A B C D E F G H I J K L M N O P Q R S T U V W X Y Z # 

Lost Tabs

(ver. 1) Click to play this song!
Saliva
 Rating:
4.3/5 (28 votes)

 Lost  lessons Tabs too difficult? Try these video lessons and learn fast
 
                
[Verse]

   sixteenth note rhythms with ringing, played throughout 
e|---------------------------------|------------------------------------|
B|---------------------------------|---------------------1p0------------|
G|-----0---------------------------|-------------------------0----------|
D|-------4------------7------------|-----2/4-----------2----------------|
A|---2--------------5--------------|---0-------------0------------------|
D|-2--------------5----------------|-0----------------------------------|



[Prechorus Bar]
e|--------------------------------------|
B|--------------------------------------|
G|--------------------------------------|
D|-0--0--0--0--0--0--0--0--0--0---------|
A|-0--0--0--0--0--0--0--0--0--0---------|
D|-0--0--0--0--0--0--0--0--0--0---------|

[Chorus]

e|-----------------------------|-----------------------------|
B|-----------------------------|-----------------------------|
G|-----------------------------|-----------------------------|
D|-2----2-2----4-5----5-5------|-0----0-0-----7----7-7-------|
A|-2----2-2----4-5----5-5------|-0----0-0-----7----7-7---5-4-|
D|-2----2-2----4-5----5-5------|-0----0-0-----7----7-7---5-4-|

e|-----------------------------|-----------------------------|
B|-----------------------------|-----------------------------|
G|-----------------------------|-----------------------------|
D|-2----2-2----4-5----5-5------|-0----0-0----0-7----7-7------|
A|-2----2-2----4-5----5-5------|-0----0-0----0-7----7-7------|
D|-2----2-2----4-5----5-5------|-0----0-0----0-7----7-7------|

e|------------------------------|-----------------------------|
B|------------------------------|--------3----3---------------|
G|------------------------------|--------2----2-2----2-2------|
D|-10-10-10-10\----9--9--9--9\--|-2----2-0----0-2----2-2------|
A|-10-10-10-10\----9--9--9--9\--|-2----2-0----0-0----0-0------|
D|-10-10-10-10\----9--9--9--9\--|-2----2----------------------|

e|-------------------------------------|-------------------|
B|-------------------------------------|-------------------|
G|-------------------------------------|-------------------|
D|-10-10-10-10-10-10-10-10-10-10-10-10-|-9\----------------|
A|-10-10-10-10-10-10-10-10-10-10-10-10-|-9\----------------|
D|-10-10-10-10-10-10-10-10-10-10-10-10-|-9\----------------|

e|-----------------------------|-----------------------------|
B|-----------------------------|-----------------------------|
G|-----------------------------|-----------------------------|
D|-2----2-2----4-5----5-5------|-0----0-0-----7----7-7-------|
A|-2----2-2----4-5----5-5------|-0----0-0-----7----7-7---5-4-|
D|-2----2-2----4-5----5-5------|-0----0-0-----7----7-7---5-4-|

e|-----------------------------|-----------------------------|
B|-----------------------------|-----------------------------|
G|-----------------------------|-----------------------------|
D|-2----2-2----4-5----5-5------|-0----0-0----0-7----7-7------|
A|-2----2-2----4-5----5-5------|-0----0-0----0-7----7-7------|
D|-2----2-2----4-5----5-5------|-0----0-0----0-7----7-7------|



[Verse 2]

   original part
e|---------------------------------|------------------------------------|
B|---------------------------------|---------------------1p0------------|
G|-----0---------------------------|-------------------------0----------|
D|-------4------------7------------|-----2/4-----------2----------------|
A|---2--------------5--------------|---0-------------0------------------|
D|-2--------------5----------------|-0----------------------------------|

   distorted PM part
e|---------------------------------------|---------------------------------------|
B|---------------------------------------|---------------------------------------|
G|---------------------------------------|---------------------------------------|
D|---------------------------------------|---------------------------------------|
A|-2--2-2-2--2--2--2--5--5-5-5--5--5--5--|-0--0-0-0--0--0--0--7--7-7-7--7--7--7--|
D|-2--2-2-2--2--2--2--5--5-5-5--5--5--5--|-0--0-0-0--0--0--0--7--7-7-7--7--7--7--|

e|---------------------------------------|------------------------------------|
B|---------------------------------------|------------------------------------|
G|---------------------------------------|-------------------8----------------|
D|-5--5-5-5--5--5--5--5--5-5-5--5--5--5--|-4--4--4--4--4--4-------------------|
A|-3--3-3-3--3--3--3--3--3-3-3--3--3--3--|-2--2--2--2--2--2--6----------------|
D|---------------------------------------|------------------------------------|



[Chorus 2]
e|-----------------------------|-----------------------------|
B|-----------------------------|-----------------------------|
G|-----------------------------|-----------------------------|
D|-2----2-2----4-5----5-5------|-0----0-0-----7----7-7-------|
A|-2----2-2----4-5----5-5------|-0----0-0-----7----7-7---5-4-|
D|-2----2-2----4-5----5-5------|-0----0-0-----7----7-7---5-4-|

e|-----------------------------|-----------------------------|
B|-----------------------------|-----------------------------|
G|-----------------------------|-----------------------------|
D|-2----2-2----4-5----5-5------|-0----0-0----0-7----7-7------|
A|-2----2-2----4-5----5-5------|-0----0-0----0-7----7-7------|
D|-2----2-2----4-5----5-5------|-0----0-0----0-7----7-7------|

e|------------------------------|-----------------------------|
B|------------------------------|--------3----3---------------|
G|------------------------------|--------2----2-2----2-2------|
D|-10-10-10-10\----9--9--9--9\--|-2----2-0----0-2----2-2------|
A|-10-10-10-10\----9--9--9--9\--|-2----2-0----0-0----0-0------|
D|-10-10-10-10\----9--9--9--9\--|-2----2----------------------|

e|-------------------------------------|------------------------------------|
B|-------------------------------------|------------------------------------|
G|-------------------------------------|------------------------------------|
D|-10-10-10-10-10-10-10-10-10-10-10-10-|-9--9--9--9--9--9--9--9--9--9--9--9-|
A|-10-10-10-10-10-10-10-10-10-10-10-10-|-9--9--9--9--9--9--9--9--9--9--9--9-|
D|-10-10-10-10-10-10-10-10-10-10-10-10-|-9--9--9--9--9--9--9--9--9--9--9--9-|

e|-----------------------------|-----------------------------|
B|-----------------------------|-----------------------------|
G|-----------------------------|-----------------------------|
D|-2----2-2----4-5----5-5------|-0----0-0-----7----7-7-------|
A|-2----2-2----4-5----5-5------|-0----0-0-----7----7-7---5-4-|
D|-2----2-2----4-5----5-5------|-0----0-0-----7----7-7---5-4-|

e|-----------------------------|-----------------------------|
B|-----------------------------|-----------------------------|
G|-----------------------------|-----------------------------|
D|-2----2-2----4-5----5-5------|-0----0-0----0-7----7-7------|
A|-2----2-2----4-5----5-5------|-0----0-0----0-7----7-7------|
D|-2----2-2----4-5----5-5------|-0----0-0----0-7----7-7------|



[Solo]
e|--------------------------------15-|-17b19---b19-b19---17p15-17----------|
B|-----13---------15-17-16-----17----|------------------------------19b20r-|
G|---12------------------------------|-------------------------------------|
D|/14--------------------------------|-------------------------------------|
A|-----------------------------------|-------------------------------------|
D|-----------------------------------|-------------------------------------|

e|-----------------------------------|--------------------------------------|
B|-17------------17-19b20---19b20r19-|-16~----------------------------------|
G|------------16---------------------|--------------16h17p16\---------------|
D|-----------------------------------|--------------------------------------|
A|-----------------------------------|--------------------------------------|
D|-----------------------------------|--------------------------------------|



[Final Chorus]
e|-----------------------------|-----------------------------|
B|-----------------------------|-----------------------------|
G|-----------------------------|-----------------------------|
D|-2----2-2----4-5----5-5------|-0----0-0-----7----7-7-------|
A|-2----2-2----4-5----5-5------|-0----0-0-----7----7-7---5-4-|
D|-2----2-2----4-5----5-5------|-0----0-0-----7----7-7---5-4-|

e|-----------------------------|------------------------------|
B|-----------------------------|------------------------------|
G|-----------------------------|------------------------------|
D|-2----2-2----4-5----5-5------|-0-----------------------7--9-|
A|-2----2-2----4-5----5-5------|-0------------x-x--x-x-x-7--9-|
D|-2----2-2----4-5----5-5------|-0------------x-x--x-x-x-7--9-|

                                  6 beats
e|------------------------------|----------------------------------------|
B|------------------------------|--------3----3--------------------------|
G|------------------------------|--------2----2-2----2-2----2-2----2-2---|
D|-10-10-10-10\----9--9--9--9\--|-2----2-0----0-2----2-2----2-2----2-2---|
A|-10-10-10-10\----9--9--9--9\--|-2----2-0----0-0----0-0----2-2----2-2---|
D|-10-10-10-10\----9--9--9--9\--|-2----2---------------------------------|

e|-------------------------------------|------------------------------------|
B|-------------------------------------|------------------------------------|
G|-------------------------------------|------------------------------------|
D|-10-10-10-10-10-10-10-10-10-10-10-10-|-9--9--9--9--9--9--9--9--9--9--9--9-| play 2x
A|-10-10-10-10-10-10-10-10-10-10-10-10-|-9--9--9--9--9--9--9--9--9--9--9--9-|
D|-10-10-10-10-10-10-10-10-10-10-10-10-|-9--9--9--9--9--9--9--9--9--9--9--9-|

e|-----------------------------|-----------------------------|
B|-----------------------------|-----------------------------|
G|-----------------------------|-----------------------------|
D|-2----2-2----4-5----5-5------|-0----0-0-----7----7-7-------|
A|-2----2-2----4-5----5-5------|-0----0-0-----7----7-7---5-4-|
D|-2----2-2----4-5----5-5------|-0----0-0-----7----7-7---5-4-|

e|-----------------------------|-----------------------------|-----------------|
B|-----------------------------|-----------------------------|-----------------|
G|-----------------------------|-----------------------------|-----------------|
D|-2----2-2----4-5----5-5------|-0----0-0----0-7-------------|--2--------------|
A|-2----2-2----4-5----5-5------|-0----0-0----0-7-------------|--2--------------|
D|-2----2-2----4-5----5-5------|-0----0-0----0-7-------------|--2--------------|



[Octave Fuzz Lead]

   Plays over Final Chorus starting at 6/4 bar (3:03)

   6 beats                             4 beats until end
e|-12-------12-----------------------|------------------------------------|
B|-------15-------------------12-----|------------------------------------|
G|-------------14-------12-14---12---|-12-11---11---------11--11b12-11h12-|
D|--------------------------------14-|------------14---14-----------------|   
A|-----------------------------------|------------------------------------|
D|-----------------------------------|------------------------------------|

e|--------------------12-12-12-12----|-12--------------------------|-------------------------------------|
B|--------------------12-12-------15-|-----------------------------|-------------------------------------|
G|-11~----------14b16----------------|--------11-----12-----14-----|-11~-------12-14-14b16-b16-b16-b16---|
D|-----------------------------------|-----------------------------|-------------------------------------|
A|-----------------------------------|-----------------------------|-------------------------------------|
D|-----------------------------------|-----------------------------|-------------------------------------|

e|-12TP---------------------|-------15-14~----------15-12-|-------12-10----10h12---------|
B|--------------------------|-----------------------------|------------------------------|
G|--9TP---------------------|-----------------------------|------------------------------|
D|--------------------------|-----------------------------|------------------------------|
A|--------------------------|-----------------------------|------------------------------|
D|--------------------------|-----------------------------|------------------------------|

e|-----------------------------|-----------------|
B|-----------------------------|-----------------|
G|-----------------------------|-----------------|
D|-14TP------------------------|-----------------|
A|-----------------------------|-----------------|
D|-----------------------------|-----------------|            
Submit corrections


        Lost  lessons Hard to play? Try these video lessons and learn fast Lost  lessons
        
↑ Back to top | Tablatures and chords for acoustic guitar and electric guitar, ukulele, drums are parodies/interpretations of the original songs. You may use it for private study, scholarship, research or language learning purposes only