Home » S » Saliva »

Saliva - Famous Monsters Bass

Artists:  A B C D E F G H I J K L M N O P Q R S T U V W X Y Z # 

Famous Monsters Bass

(ver. 1) Click to play this song!
Saliva
Saliva - Famous monster

bass tab


5-stringed bass
G D A E B

   A
G-|-----------|
D-|-----------|
A-|-----------|
E-|-----------|
B-|-2----3----|
                                                                              
 
   B
G-|---------------------|
D-|---------------------|
A-|---------------------|
E-|-2----0---------0----|
B-|-----------3---------|
                                                                              

   C
G-|-----------|
D-|-----------|
A-|-----------|
E-|-0---------|
B-|------3----|
                                                                              
Mando salutos a La Lucia Machicao de QB 2004, me acuerdo pues que era bien alta
y debe estar mas alta todavia y un dia me eligieron mister tata del curso junto a ella
para entrar al concurso de taras de secundaria. bien tara.

doky2007
            
Submit corrections

↑ Back to top | Tablatures and chords for acoustic guitar and electric guitar, ukulele, drums are parodies/interpretations of the original songs. You may use it for private study, scholarship, research or language learning purposes only