» » »

Sales - Untitled 01 Tabs

Artists:  A B C D E F G H I J K L M N O P Q R S T U V W X Y Z # 

Untitled 01 Tabs

(ver. 1) Click to play this song!
Sales
 Rating:
4.3/5 (20 votes)

 Untitled 01  lessons Tabs too difficult? Try these video lessons and learn fast
 
                [Intro]
e|----------------------------------------------------------------|
B|----------------------------------------------------------------|
G|-9-11-7-9---9-11------9-----------------------------------------|
D|-----------------9-12-------------------------------------------|(x2)
A|----------------------------------------------------------------|
E|----------------------------------------------------------------|


e|---------------10-9---------------------------------------------|
B|----------10-7------7-10-10-------------------------------------|
G|------9-6-------------------------------------------------------|
D|-12-9-----------------------9-12-9-12---------------------------|
A|----------------------------------------------------------------|
E|----------------------------------------------------------------|

e|---------------10-9---------------------------------------------|
B|----------10-7------7-10-10------12-10--------------------------|
G|------9-6-------------------------------------------------------|
D|-12-9-----------------------9-12--------------------------------|
A|----------------------------------------------------------------|
E|----------------------------------------------------------------|

[Bridge]
e|----------------------------------------------------------------|
B|----------------------------------------------------------------|
G|----------------------------------------------------------------|
D|----------------------------------------------------------------|
A|-----9------9------9------9-------------------------------------|
E|-7-9----7-9----7-9----7-9---------------------------------------|


e|---------------10-9---------------------------------------------|
B|----------10-7------7-10-10-------------------------------------|
G|------9-6-------------------------------------------------------|
D|-12-9-----------------------9-12-9-12---------------------------|
A|----------------------------------------------------------------|
E|----------------------------------------------------------------|

e|---------------10-9---------------------------------------------|
B|----------10-7------7-10-10------12-10--------------------------|
G|------9-6-------------------------------------------------------|
D|-12-9-----------------------9-12--------------------------------|
A|----------------------------------------------------------------|
E|----------------------------------------------------------------|

[Bridge]
e|----------------------------------------------------------------|
B|----------------------------------------------------------------|
G|----------------------------------------------------------------|
D|----------------------------------------------------------------|
A|-----9------9------9------9-------------------------------------|
E|-7-9----7-9----7-9----7-9---------------------------------------|            
Submit corrections


        Untitled 01  lessons Hard to play? Try these video lessons and learn fast Untitled 01  lessons
        
↑ Back to top | Tablatures and chords for acoustic guitar and electric guitar, ukulele, drums are parodies/interpretations of the original songs. You may use it for private study, scholarship, research or language learning purposes only