» » »

Sales - Toto Tabs

Artists:  A B C D E F G H I J K L M N O P Q R S T U V W X Y Z # 

Toto Tabs

(ver. 1) Click to play this song!
Sales
 Rating:
4.3/5 (27 votes)

 Toto  lessons Tabs too difficult? Try these video lessons and learn fast
 
                Intro
e|---------------------------------------------------|
B|-----9----9----9----9----11----11----11----11------|
G|--10---10---10---10---12----12----12----12---------|
D|---------------------------------------------------| 
A|---------------------------------------------------| x5
E|---------------------------------------------------|

Verse
e|------------------------------------------------------|
B|------------------------------------------------------|
G|------------------------------------------------------|
D|--99-------------------------99------------9-9/12-9---|
A|-----10-10-99-------------------10-10-99-10-----------| x2
E|--------------10-10-10/12-10--------------------------|

Chorus
e|------------------------|
B|------------------------|
G|------------------------|
D|--10~--9~---10~-7~--5~--|
A|--10~--9~---10~-7~--5~--|
E|---8~--7~----8~-9~--3~--|

Post Chorus
Guitar 2 
e|-------------------------------------|
B|---9---9---9---9---11--11--11--11----|
G|--10--10--10--10---12--12--12--12----|
D|-------------------------------------| x2
A|-------------------------------------|
E|-------------------------------------|

Guitar 1
e|----------------------------------------------------------------------------|
B|----------------------------------------------------------------------------|
G|----------------------------------------------------------------------------|
D|------9-------9-------9-------9--------12--------12--------12---12/14-12----| x2
A|----7---7---7---7---7---7---7---7----9----9----9----9----9----9-------------|
E|--8-------8-------8-------8-------10--------10--------10--------------------|

Guitar 2
e|---------------------------------------------------------------------------|
B|---------------------------------------------------------------------------|
G|---------------------------------------------------------------------------|
D|------9-------9-------9-------9--------12--------12--------12--------12----| x2
A|----7---7---7---7---7---7---7---7----9----9----9----9----9----9----9----9--|
E|--8-------8-------8-------8-------10--------10--------10--------10---------|

Guitar 1
e|---------------------------------------------------------|
B|---------------------------------------------------------|
G|---------------------------------------------------------|
D|--12--10-------------------------------------------------|
A|---------12--10--10-12-12--12-14-14--14-17-17--17-14-14--| x2
E|---------------------------------------------------------|


Outro
Guitar 1 
e|----------------------------------------------------------------------------|
B|----------------------------------------------------------------------------|
G|----------------------------------------------------------------------------|
D|------9-------9-------9-------9--------12--------12--------12---12/14-12----| x2
A|----7---7---7---7---7---7---7---7----9----9----9----9----9----9-------------|
E|--8-------8-------8-------8-------10--------10--------10--------------------|
            
Submit corrections


        Toto  lessons Hard to play? Try these video lessons and learn fast Toto  lessons
        
↑ Back to top | Tablatures and chords for acoustic guitar and electric guitar, ukulele, drums are parodies/interpretations of the original songs. You may use it for private study, scholarship, research or language learning purposes only