» » »

Sales - Sorry Bro Tabs

Artists:  A B C D E F G H I J K L M N O P Q R S T U V W X Y Z # 

Sorry Bro Tabs

(ver. 1) Click to play this song!
Sales
 Rating:
4.3/5 (21 vote)

 Sorry Bro  lessons Tabs too difficult? Try these video lessons and learn fast
 
                [Intro]
e|--------------------------------------------------------------------------------------------|
B|--------------------------------------------------------------------------------------------|
G|------------9----------9-----------9-----------9--------------------------------------------|
D|--------7-----------7-----------7----------7--------------9----------9---------9----------9-|
A|----8-----------8----------8-----------8--------------7----------7---------7----------7-----|
E|--------------------------------------------------8----------8----------8---------8---------|

e|--------------------------------------------------------------------------------------------|
B|--------------------------------------------------------------------------------------------|
G|------------7-----------7-----------7----------7----------5-----------5--------5----------5-|
D|--------6------------6----------6----------6----------5-----------5--------5-----------5----|
A|--------------------------------------------------0----------0----------0----------0--------|
E|----0-----------0-----------0-----------0---------------------------------------------------|            
Submit corrections


        Sorry Bro  lessons Hard to play? Try these video lessons and learn fast Sorry Bro  lessons
        
↑ Back to top | Tablatures and chords for acoustic guitar and electric guitar, ukulele, drums are parodies/interpretations of the original songs. You may use it for private study, scholarship, research or language learning purposes only