Home » S » Sales »

Sales - Renee Tabs

Artists:  A B C D E F G H I J K L M N O P Q R S T U V W X Y Z # 

Renee Tabs

(ver. 1) Click to play this song!
Sales
 Rating:
4.3/5 (26 votes)
                [Whole Song]
e|---------------------------------------------------------------------------|
B|---------0-----------------------------0---0h3--0--------------------------|
G|------------0----------------------------------------0---------------------|
D|------4----------------------------4---------------------------------------|
A|---5----------------------------5------------------------------------------|
E|---------------5--7--------------------------------------------------------|

e|---------------------------------------------------------------------------|
B|---------0-----------------------------0---0h3--0--------------------------|
G|------------0----------------------------------------0---------------------|
D|------4----------------------------4---------------------------------------|
A|---5----------------------------5------------------------------------------|
E|---------------5--7--------------------------------------------------------|

[Outro]
e|---------------------------------------------------------------------------|
B|----------3h0----------------3h0----------------3h0------------------------|
G|---------------0------------------0------------------0---------------------|
D|------4-------------------4------------------4-----------------------------|
A|---5-------------------5------------------5--------------------------------|
E|---------------------------------------------------------------------------|

(fade out)            
Submit corrections

↑ Back to top | Tablatures and chords for acoustic guitar and electric guitar, ukulele, drums are parodies/interpretations of the original songs. You may use it for private study, scholarship, research or language learning purposes only