» » »

Sales - Pope Is A Rockstar Tabs

Artists:  A B C D E F G H I J K L M N O P Q R S T U V W X Y Z # 

Pope Is A Rockstar Tabs

(ver. 1) Click to play this song!
Sales
 Rating:
4.3/5 (24 votes)

 Pope Is A Rockstar  lessons Tabs too difficult? Try these video lessons and learn fast
 
                [Intro]
e|-----------------------------------|
B|------3-----0----------------------|
G|----0-----0-----------2-------4----|
d|--2-----2-----------2---2---4------|
a|----------------3---------5--------|
E|-----------------------------------| (x2)

[Verse 1]
Now he wants to start talking
e|-----------------------------------|
B|--------------------------3-3-3-3--|
G|--2-2-2-2-2-2-2-2-4-4-4-4-0-0-0-0--|
d|--2-2-2-2-2-2-2-2-4-4-4-4-0-0-0-0--|
a|--3-3-3-3-3-3-3-3-5-5-5-5-2-2-2-2--|
E|-----------------------------------|

"Go ahead," when I'm walking
e|-----------------------------------|
B|-----------------------------------|
G|--2-2-2-2-2-2-2-2-4-4-4-4-0-0-0-0--|
d|--2-2-2-2-2-2-2-2-4-4-4-4-0-0-0-0--|
a|--3-3-3-3-3-3-3-3-5-5-5-5-2-2-2-2--|
E|-----------------------------------|

Face the lie that I'm hawking
e|-----------------------------------|
B|--------------------------3-3-3-3--|
G|--2-2-2-2-2-2-2-2-4-4-4-4-0-0-0-0--|
d|--2-2-2-2-2-2-2-2-4-4-4-4-0-0-0-0--|
a|--3-3-3-3-3-3-3-3-5-5-5-5-2-2-2-2--|
E|-----------------------------------|

"No, don't wanna, won't happen"
e|-----------------------------------|
B|--------------------------3-3-3-3--|
G|--2-2-2-2-2-2-2-2-4-4-4-4-0-0-0-0--|
d|--2-2-2-2-2-2-2-2-4-4-4-4-0-0-0-0--|
a|--3-3-3-3-3-3-3-3-5-5-5-5-2-2-2-2--|
E|-----------------------------------|

[Chorus]
                      Pope is a rockstar      
e|-----------------------------------|
B|-----------------------------------|
G|--2---/----4------0----------------|
d|--2---/----4------0----------------|
a|--3---/----5------2----------------|
E|-----------------------------------|

                      You take your clothes off
e|-----------------------------------|
B|------------------3----------------|
G|--2---/----4------0----------------|
d|--2---/----4------0----------------|
a|--3---/----5------2----------------|
E|-----------------------------------|

                      Heading for the last fight
e|-----------------------------------|
B|-----------------------------------|
G|--2---/----4------0----------------|
d|--2---/----4------0----------------|
a|--3---/----5------2----------------|
E|-----------------------------------|
                      Before our worlds part
e|-----------------------------------|
B|------------------3----------------|
G|--2---/----4------0----------------|
d|--2---/----4------0----------------|
a|--3---/----5------2----------------|
E|-----------------------------------|

[Instrumental]
e|-----------------------------------|
B|------3-----0----------------------|
G|----0-----0-----------2-------4----|
d|--2-----2-----------2---2---4------|
a|----------------3---------5--------|
E|-----------------------------------| (x2)

[Verse 2]
We can wait forever for the world to untrack
We can wait forever for the worthwhile track and
e|-----------------------------------|
B|------3-----0----------------------|
G|----0-----0-----------2-------4----|
d|--2-----2-----------2---2---4------|
a|----------------3---------5--------|
E|-----------------------------------| (x2)

Oh you wanna start talking
e|-----------------------------------|
B|--------------------------3-3-3-3--|
G|--2-2-2-2-2-2-2-2-4-4-4-4-0-0-0-0--|
d|--2-2-2-2-2-2-2-2-4-4-4-4-0-0-0-0--|
a|--3-3-3-3-3-3-3-3-5-5-5-5-2-2-2-2--|
E|-----------------------------------|

Fall together I'm walking
e|-----------------------------------|
B|-----------------------------------|
G|--2-2-2-2-2-2-2-2-4-4-4-4-0-0-0-0--|
d|--2-2-2-2-2-2-2-2-4-4-4-4-0-0-0-0--|
a|--3-3-3-3-3-3-3-3-5-5-5-5-2-2-2-2--|
E|-----------------------------------|

Face the lie that I'm hawking
e|-----------------------------------|
B|--------------------------3-3-3-3--|
G|--2-2-2-2-2-2-2-2-4-4-4-4-0-0-0-0--|
d|--2-2-2-2-2-2-2-2-4-4-4-4-0-0-0-0--|
a|--3-3-3-3-3-3-3-3-5-5-5-5-2-2-2-2--|
E|-----------------------------------|

We can always fight
e|-----------------------------------|
B|--------------------------3-3-3-3--|
G|--2-2-2-2-2-2-2-2-4-4-4-4-0-0-0-0--|
d|--2-2-2-2-2-2-2-2-4-4-4-4-0-0-0-0--|
a|--3-3-3-3-3-3-3-3-5-5-5-5-2-2-2-2--|
E|-----------------------------------|

[Chorus]
                      You can be the highlight      
e|-----------------------------------|
B|-----------------------------------|
G|--2---/----4------0----------------|
d|--2---/----4------0----------------|
a|--3---/----5------2----------------|
E|-----------------------------------|

                      Pope is a rockstar
e|-----------------------------------|
B|------------------3----------------|
G|--2---/----4------0----------------|
d|--2---/----4------0----------------|
a|--3---/----5------2----------------|
E|-----------------------------------|

                      Hoping on a late night
e|-----------------------------------|
B|-----------------------------------|
G|--2---/----4------0----------------|
d|--2---/----4------0----------------|
a|--3---/----5------2----------------|
E|-----------------------------------|
                      
e|-----------------------------------|
B|------------------3----------------|
G|--2---/----4------0----------------|
d|--2---/----4------0----------------|
a|--3---/----5------2----------------|
E|-----------------------------------|

[Verse 3]
How you wanna start talking?
e|-----------------------------------|
B|--------------------------3-3-3-3--|
G|--2-2-2-2-2-2-2-2-4-4-4-4-0-0-0-0--|
d|--2-2-2-2-2-2-2-2-4-4-4-4-0-0-0-0--|
a|--3-3-3-3-3-3-3-3-5-5-5-5-2-2-2-2--|
E|-----------------------------------|

How you wanna start walking?
e|-----------------------------------|
B|-----------------------------------|
G|--2-2-2-2-2-2-2-2-4-4-4-4-0-0-0-0--|
d|--2-2-2-2-2-2-2-2-4-4-4-4-0-0-0-0--|
a|--3-3-3-3-3-3-3-3-5-5-5-5-2-2-2-2--|
E|-----------------------------------|

We can make a landslide dive-in
e|-----------------------------------|
B|--------------------------3-3-3-3--|
G|--2-2-2-2-2-2-2-2-4-4-4-4-0-0-0-0--|
d|--2-2-2-2-2-2-2-2-4-4-4-4-0-0-0-0--|
a|--3-3-3-3-3-3-3-3-5-5-5-5-2-2-2-2--|
E|-----------------------------------|

We can let it all go cave-in
e|-----------------------------------|
B|-----------------------------------|
G|--2-2-2-2-2-2-2-2-4-4-4-4-0-0-0-0--|
d|--2-2-2-2-2-2-2-2-4-4-4-4-0-0-0-0--|
a|--3-3-3-3-3-3-3-3-5-5-5-5-2-2-2-2--|
E|-----------------------------------|

[Verse 4]
El you wanna start talking
e|-----------------------------------|
B|--------------------------3-3-3-3--|
G|--2-2-2-2-2-2-2-2-4-4-4-4-0-0-0-0--|
d|--2-2-2-2-2-2-2-2-4-4-4-4-0-0-0-0--|
a|--3-3-3-3-3-3-3-3-5-5-5-5-2-2-2-2--|
E|-----------------------------------|

El you know that I'm walking
e|-----------------------------------|
B|-----------------------------------|
G|--2-2-2-2-2-2-2-2-4-4-4-4-0-0-0-0--|
d|--2-2-2-2-2-2-2-2-4-4-4-4-0-0-0-0--|
a|--3-3-3-3-3-3-3-3-5-5-5-5-2-2-2-2--|
E|-----------------------------------|

Hoping and a hoping that I won't cry
e|-----------------------------------|
B|--------------------------3-3-3-3--|
G|--2-2-2-2-2-2-2-2-4-4-4-4-0-0-0-0--|
d|--2-2-2-2-2-2-2-2-4-4-4-4-0-0-0-0--|
a|--3-3-3-3-3-3-3-3-5-5-5-5-2-2-2-2--|
E|-----------------------------------|

Hoping and a hoping that I won't cry
e|-----------------------------------|
B|-----------------------------------|
G|--2-2-2-2-2-2-2-2-4-4-4-4-0-0-0-0--|
d|--2-2-2-2-2-2-2-2-4-4-4-4-0-0-0-0--|
a|--3-3-3-3-3-3-3-3-5-5-5-5-2-2-2-2--|
E|-----------------------------------|

[Outro] 
(is just fade out of this chord progression)            
Submit corrections


        Pope Is A Rockstar  lessons Hard to play? Try these video lessons and learn fast Pope Is A Rockstar  lessons
        
↑ Back to top | Tablatures and chords for acoustic guitar and electric guitar, ukulele, drums are parodies/interpretations of the original songs. You may use it for private study, scholarship, research or language learning purposes only