» » »

Sales - For You Tabs

Artists:  A B C D E F G H I J K L M N O P Q R S T U V W X Y Z # 

For You Tabs

(ver. 1) Click to play this song!
Sales
 Rating:
4.4/5 (11 votes)

 For You  lessons Tabs too difficult? Try these video lessons and learn fast
 
                [Intro]
e|---------------------------------------------------------------------|
B|-----4-----4--------------------------4-----4------------------------|
G|---5-----5-----5-----5-----5--------5-----5----5-----5---------------|
D|-6-----6-----6-----6-----6-----6--6-----6----6-----6-----------------|
A|-----------------4-----4-----4-------------------4-----4-4-3---------|
E|-------------------------------------------------------------4-------|

[Verse 1]
e|---------------------------------------------------------------------|
B|--4-4-4-4-4-4-4-4-------------------4-4-4-4-4-4-4-4------------------|
G|--5-5-5-5-5-5-5-5--5-5-5-5-5-5-5-5--5-5-5-5-5-5-5-5--5-5-5-5-5-5-5-5-|
D|--6-6-6-6-6-6-6-6--6-6-6-6-6-6-6-6--6-6-6-6-6-6-6-6--6-6-6-6-6-6-6-6-|
A|-------------------4-4-4-4-4-4-4-4-------------------4-4-4-4-4-4-4-4-|
E|---------------------------------------------------------------------|
could have been a good half.   (west of indies effort)

e|---------------------------------------------------------------------|
B|--4-4-4-4-4-4-4-4-------------------4-4-4-4-4-4-4-4------------------|
G|--5-5-5-5-5-5-5-5--5-5-5-5-5-5-5-5--5-5-5-5-5-5-5-5--5-5-5-5-5-5-5-5-|
D|--6-6-6-6-6-6-6-6--6-6-6-6-6-6-6-6--6-6-6-6-6-6-6-6--6-6-6-6-6-6-6-6-|
A|-------------------4-4-4-4-4-4-4-4-------------------4-4-4-4-4-4-4-4-|
E|---------------------------------------------------------------------|
could have been an ex-best fan   (west of indies / west of excerpt)

[Instrumental]
e|---------------------------------------------------------------------|
B|-----4-----4--------------------------4-----4------------------------|
G|---5-----5-----5-----5-----5--------5-----5----5-----5---------------|(x2)
D|-6-----6-----6-----6-----6-----6--6-----6----6-----6-----------------|
A|-----------------4-----4-----4-------------------4-----4-3-----------|
E|---------------------------------------------------------------------|

[Bridge]
e|---------------------------------------------------------------------|
B|---------------------------------------------------------------------|
G|---------------------------------------------------------------------|(x2)
D|---------------------------------------------------------------------|
A|----6-6-----6---6---6-----6-----6---6---6----------------------------|
E|--6-----6-6---6---6-----4---4-4---4---4------------------------------|
(1) Can you hear what I hear?  Do you know what I know?
(2) When will it all be over? Will you be sad when it's over?

[Verse 2]
e|---------------------------------------------------------------------|
B|-----4-----4--------------------------4-----4------------------------|
G|---5-----5-----5-----5-----5--------5-----5----5-----5-----5---------|(x2)
D|-6-----6-----6-----6-----6--------6-----6----6-----6-----6-----------|
A|-----------------4-----4-----4-3-----------------4-----4-----4-3-----|
E|---------------------------------------------------------------------|
Tell me "it's not nearly over." I can't bear the weight of endings--
Just not this kind of ending. For you, for you, for you, I'd start it again.

e|---------------------------------------------------------------------|
B|-----4-----4--------------------------4-----4------------------------|
G|---5-----5-----5-----5-----5--------5-----5----5-----5-----5---------|(x2)
D|-6-----6-----6-----6-----6--------6-----6----6-----6-----6-----------|
A|-----------------4-----4-----4-3-----------------4-----4-----4-3-----|
E|---------------------------------------------------------------------|
Tell me "it's not nearly over." I can't bear the weight of endings--
Just not this kind of ending. For you, for you, for you, I'd start it again.

e|---------------------------------------------------------------------|
B|-----4-----4--------------------------4-----4------------------------|
G|---5-----5-----5-----5-----5--------5-----5----5-----5-----5---------|
D|-6-----6-----6-----6-----6--------6-----6----6-----6-----6-----------|
A|-----------------4-----4-----4-3-----------------4-----4-----4-3-----|
E|---------------------------------------------------------------------|
                                 For you, For you, for you, 
                                        I can't stand the ending.

e|---------------------------------------------------------------------|
B|-----4-----4--------------------------4-----4------------------------|
G|---5-----5-----5-----5-----5--------5-----5----5-----5-----5---------|(x2)
D|-6-----6-----6-----6-----6--------6-----6----6-----6-----6-----------|
A|-----------------4-----4-----4-3-----------------4-----4-----4-3-----|
E|-----------------------------------------------------------------4---|
               For you, for you, for you.            
Submit corrections


        For You  lessons Hard to play? Try these video lessons and learn fast For You  lessons
        
↑ Back to top | Tablatures and chords for acoustic guitar and electric guitar, ukulele, drums are parodies/interpretations of the original songs. You may use it for private study, scholarship, research or language learning purposes only