Home » S » Sabrina Carpenter »

Sabrina Carpenter - Paris Tabs

Artists:  A B C D E F G H I J K L M N O P Q R S T U V W X Y Z # 

Paris Tabs

(ver. 1) Click to play this song!
Sabrina Carpenter
[Intro]

e|--------------------|
B|--------------------|
G|--------------------|
D|------12--------12--|
A|-10-8-----10-12-----|
E|--------------------|


[Verse 1]

e|----------------------------------------|
B|----------------------------------------|
G|----------------------------------------|
D|-------------------------------------12-|
A|---10----------------8------------------|
E|----------------------------------------|
If I asked that boy to jump, I know he would

e|--------------------------------------|
B|--------------------------------------|
G|--------------------------------------|
D|-----------------------------------12-|
A|-------10-----------12----------------|
E|--------------------------------------|
He don't even have to say, it's understood

e|--------------------------------------------------|
B|--------------------------------------------------|
G|--------------------------------------------------|
D|-----------------------------------------------12-|
A|----------10----------------8---------------------|
E|--------------------------------------------------|
He treat me nice, he treat me right, he treat me good

e|-----------------------------------------|
B|-----------------------------------------|
G|-----------------------------------------|
D|--------------------------------------12-|
A|-------------10--------12----------------|
E|-----------------------------------------|
Still I get so hesitant, still I get so hesitant

e|-----------------------------------------|
B|-----------------------------------------|
G|-----------------------------------------|
D|--------------------------------------12-|
A|---10----------------8-------------------|
E|-----------------------------------------|
So I took myself where I think I should be

e|----------------------------------------------|
B|----------------------------------------------|
G|----------------------------------------------|
D|-------------------------------------------12-|
A|--------10----------------12------------------|
E|----------------------------------------------|
Something told me that it's waiting here for me

e|-----------------------------------------|
B|-----------------------------------------|
G|-----------------------------------------|
D|--------------------------------------12-|
A|-------10---------------8----------------|
E|-----------------------------------------|
Parisian nights, Parisian hot, Parisian breeze

e|-------------------------------------------|
B|-------------------------------------------|
G|-------------------------------------------|
D|----------------------------------------12-|
A|--------------10--------12-----------------|
E|-------------------------------------------|
Feeding me like medicine, feeding me like medicine, yeah


[Chorus]

F           Dm        Am
  It's so romantic in Paris
F            Dm        Am
  Won't even try to compare it
F               Dm            Am
  Thought I was sure that I'd find it
        F            Dm       Am
  But I already have love in LA
F           Dm        Am
  It's so romantic in Paris
F            Dm        Am
  Won't even try to compare it
F               Dm            Am
  Thought I was sure that I'd find it
        F            Dm       Am
  But I already have love in LA
          F            Dm       Am
  Yeah, I already have love in LA


[Verse 2]

e|-------------------------------------------|
B|-------------------------------------------|
G|-------------------------------------------|
D|----------------------------------------12-|
A|-----10---------------8--------------------|
E|-------------------------------------------|
If you show me too much love, it makes me leave

e|-------------------------------------------------|
B|-------------------------------------------------|
G|-------------------------------------------------|
D|----------------------------------------------12-|
A|---------10----------12--------------------------|
E|-------------------------------------------------|
Guess it's one of many things that's wrong with me

e|------------------------------------------------|
B|------------------------------------------------|
G|------------------------------------------------|
D|---------------------------------------------12-|
A|------10-------------------8--------------------|
E|------------------------------------------------|
Looking past you when you're right in front of me

e|------------------------------------------|
B|------------------------------------------|
G|------------------------------------------|
D|---------------------------------------12-|
A|--------------10-------12-----------------|
E|------------------------------------------|
I won't do that anymore, I won't do that anymore

e|------------------------------------|
B|------------------------------------|
G|------------------------------------|
D|---------------------------------12-|
A|-10---------------8-----------------|
E|------------------------------------|
   Why'd it take so long for me to know this?

e|-------------------------------------|
B|-------------------------------------|
G|-------------------------------------|
D|----------------------------------12-|
A|-10----------------12----------------|
E|-------------------------------------|
   Scared to put the water with the roses

e|---------------------------------------|
B|---------------------------------------|
G|---------------------------------------|
D|------------------------------------12-|
A|-10-----------------8------------------|
E|---------------------------------------|
   Halfway ‘cross the world for me to know this

e|--------------------------|
B|--------------------------|
G|--------------------------|
D|-----------------------12-|
A|----10-------12-----------|
E|--------------------------|
But I know this, yeah, I know this, yeah


[Chorus]

F           Dm        Am
  It's so romantic in Paris
F            Dm        Am
  Won't even try to compare it
F               Dm            Am
  Thought I was sure that I'd find it
        F            Dm       Am
  But I already have love in LA
F           Dm        Am
  It's so romantic in Paris
F            Dm        Am
  Won't even try to compare it
F               Dm            Am
  Thought I was sure that I'd find it
        F            Dm       Am
  But I already have love in LA


[Bridge]

e|----------------------------|
B|----------------------------|
G|----------------------------|
D|-------------------------12-|
A|-10---8---------------------|
E|----------------------------|
     Je ne voulais pas trouver l'amour

e|------------------------------------|
B|------------------------------------|
G|------------------------------------|
D|---------------------------------12-|
A|--------10-------------------12-----|
E|------------------------------------|
     Mais Paris a quelque chose

e|------------------------------------------------------|
B|------------------------------------------------------|
G|------------------------------------------------------|
D|---------------------------------------------------12-|
A|--------------------------------10--------------8-----|
E|------------------------------------------------------|
     Qui donne envie d'aimer, d'aimer passionnément

e|-------------------------------------|
B|-------------------------------------|
G|-------------------------------------|
D|-------------------------------------|
A|-------------------------------10----|
E|-------------------------------------|
     Mon coeur est à toi pour toujours

e|----------------------------------|
B|----------------------------------|
G|----------------------------------|
D|-------------------------------12-|
A|------------12--------------------|
E|----------------------------------|
     You will always have my heart


[Chorus]

F           Dm        Am
  It's so romantic in Paris
F            Dm        Am
  Won't even try to compare it
F               Dm            Am
  Thought I was sure that I'd find it
        F            Dm       Am
  But I already have love in LA
F           Dm        Am
  It's so romantic in Paris
F            Dm        Am                     F
  Won't even try to compare it (I know that I try)
                Dm            Am
  Thought I was sure that I'd find it
        F            Dm       Am
  But I already have love in LA


[Outro]

F           Dm        Am
  It's so romantic in Paris
F            Dm        Am
  Won't even try to compare it
F               Dm            Am
  Thought I was sure that I'd find it
        F            Dm       Am
  But I already have love in LA
        F            Dm       Am
  But I already have love in LA
            
Submit corrections

↑ Back to top | Tablatures and chords for acoustic guitar and electric guitar, ukulele, drums are parodies/interpretations of the original songs. You may use it for private study, scholarship, research or language learning purposes only