Home » S » Sabrina Carpenter »

Sabrina Carpenter - Exhale Tabs

Artists:  A B C D E F G H I J K L M N O P Q R S T U V W X Y Z # 

Exhale Tabs

(ver. 1) Click to play this song!
Sabrina Carpenter
[Intro]
 
e|-------------------------------------------|
B|---5--------------7------------------------|
G|---0--------------0------------------------|
D|-------------------------------------------|
A|---3--------------5------------------------|
E|-------------------------------------------|
     1    &    2    &    3    &    4
 
e|-------------------------------------------|
B|---3--------------5------------------------|
G|---2--------------0------------------------|
D|-------------------------------------------|
A|---2--------------3------------------------|
E|-------------------------------------------|
     5    &    6    &    7    &    8
 
 
[Verse 1]
 
e|-------------------------------------------|
B|---5--------------7------------------------|
G|---0--------------0------------------------|
D|-------------------------------------------|
A|---3--------------5------------------------|
E|-------------------------------------------|
Who put,             the baby in charge
 
e|-------------------------------------------|
B|-------3-----------------5-----------------|
G|-------2-----------------0-----------------|
D|-------------------------------------------|
A|-------2-----------------3-----------------|
E|-------------------------------------------|
It's already hard to buy all the parts
 
N.C.
and learn to use em
 
e|-------------------------------------------|
B|---5-----7---------------------------------|
G|---0-----0---------------------------------|
D|-------------------------------------------|
A|---3-----5---------------------------------|
E|-------------------------------------------|
Who put,     the world on my back
 
e|-------------------------------------------|
B|-------3------------------------5----------|
G|-------2------------------------0----------|
D|-------------------------------------------|
A|-------2------------------------3----------|
E|-------------------------------------------|
And not in my hands, just give me a chance
 
 
 
[Prechorus]
e|-------------------------------------------|
B|-----------5------------7------------------|
G|-----------0------------0------------------|
D|-------------------------------------------|
A|-----------3------------5------------------|
E|-------------------------------------------|
Listen to my mama, listen to my dad
 
e|-------------------------------------------|
B|-----------3--------------5----------------|
G|-----------2--------------0----------------|
D|-------------------------------------------|
A|-----------2--------------3----------------|
E|-------------------------------------------|
Listen to my sisters, everyone relax
 
e|-------------------------------------------|
B|--------5--------------7-------------------|
G|--------0--------------0-------------------|
D|-------------------------------------------|
A|--------3--------------5-------------------|
E|-------------------------------------------|
Everybody answers sh*t I didn't ask
 
e|-------------------------------------------|
B|---------3--------------5------------------|
G|---------2--------------0------------------|
D|-------------------------------------------|
A|---------2--------------3------------------|
E|-------------------------------------------|
Think I'm reaching my limit
 
 
 
[Chorus]
 
e|-------------------------------------------|
B|-------------------------------------------|
G|-------------------------------------------|
D|-------------------------------------------|
A|-----------2---------4---------------------|
E|-------------------------------------------|
      Can I exhale,     for a minute?
 
e|-------------------------------------------|
B|-------------------------------------------|
G|-------------------------------------------|
D|--2--4--5---4----2---0-----2---------------|
A|-------------------------------------------|
E|-------------------------------------------|
   Can I get this out in the open?
 
e|-------------------------------------------|
B|-------------------------------------------|
G|-------------------------------------------|
D|-------------------------------------------|
A|-----2----------4--------------------------|
E|-------------------------------------------|
Can I sit down, for a second?
 
e|-------------------------------------------|
B|-------------------------------------------|
G|-------------------------------------------|
D|--2--4--5---4----2---0-----0---2-----------|
A|------------------------2------------------|
E|-------------------------------------------|
   Can I      breathe?
 
e|-------------------------------------------|
B|-------------------------------------------|
G|-------------------------------------------|
D|-------------------------------------------|
A|-----------2---------4---------------------|
E|-------------------------------------------|
      Can I exhale,     for a minute?
 
e|-------------------------------------------|
B|-------------------------------------------|
G|-------------------------------------------|
D|--2--4---5---4---2--0--------2-------------|
A|-------------------------------------------|
E|-------------------------------------------|
   Can we talk it out I don't get it
 
e|-------------------------------------------|
B|-------------------------------------------|
G|-------------------------------------------|
D|-------------------------------------------|
A|-----2----------4--------------------------|
E|-------------------------------------------|
Can I calm down, for a moment?
 
e|-------------------------------------------|
B|-------------------------------------------|
G|-------------------------------------------|
D|--2--4--5---4----2---0-----0---2-----------|
A|------------------------2------------------|
E|-------------------------------------------|
   Can I      breathe?
 
e|-------------------------------------------|
B|-------------------------------------------|
G|-------------------------------------------|
D|-------------------------------------------|
A|---2--------------4------------------------|
E|-------------------------------------------|
For just one second, baby
 
 
 
[Verse 2]
 
e|-------------------------------------------|
B|---5---------------7-----------------------|
G|---0---------------0-----------------------|
D|-------------------------------------------|
A|---3---------------5-----------------------|
E|-------------------------------------------|
      I put too much weight on words and glances
 
e|-------------------------------------------|
B|---3---------------5-----------------------|
G|---2---------------0-----------------------|
D|-------------------------------------------|
A|---2---------------3-----------------------|
E|-------------------------------------------|
      I put too much weight on situations
 
e|-------------------------------------------|
B|---5---------------7-----------------------|
G|---0---------------0-----------------------|
D|-------------------------------------------|
A|---3---------------5-----------------------|
E|-------------------------------------------|
      I put too much on myself thinking
e|-------------------------------------------|
B|----------3-----------------------5--------|
G|----------2-----------------------0--------|
D|-------------------------------------------|
A|----------2-----------------------3--------|
E|-------------------------------------------|
  I don't deserve what I've earned but yeah
 
e|-------------------------------------------|
B|-------3-----------------5-----------------|
G|-------2-----------------0-----------------|
D|-------------------------------------------|
A|-------2-----------------3-----------------|
E|-------------------------------------------|
It's already hard to buy all the parts
 
 
[Prechorus]
e|-------------------------------------------|
B|------------5--------------7---------------|
G|------------0--------------0---------------|
D|-------------------------------------------|
A|------------3--------------5---------------|
E|-------------------------------------------|
Listen to the labels, listen to the man
 
e|-------------------------------------------|
B|------------3----------------5-------------|
G|------------2----------------0-------------|
D|-------------------------------------------|
A|------------2----------------3-------------|
E|-------------------------------------------|
Try to keep a sense of knowing who I am
 
e|-------------------------------------------|
B|-----------5------------------7------------|
G|-----------0------------------0------------|
D|-------------------------------------------|
A|-----------3------------------5------------|
E|-------------------------------------------|
Try to be an angel, but I don't think I can
 
e|-------------------------------------------|
B|---------3--------------5------------------|
G|---------2--------------0------------------|
D|-------------------------------------------|
A|---------2--------------3------------------|
E|-------------------------------------------|
Think I'm reaching my limit, yeah
 
 
 
[Chorus]
 
e|-------------------------------------------|
B|-------------------------------------------|
G|-------------------------------------------|
D|-------------------------------------------|
A|-----------2---------4---------------------|
E|-------------------------------------------|
      Can I exhale,     for a minute?
 
e|-------------------------------------------|
B|-------------------------------------------|
G|-------------------------------------------|
D|--2--4--5---4----2---0-----2---------------|
A|-------------------------------------------|
E|-------------------------------------------|
   Can I get this out in the open?
 
e|-------------------------------------------|
B|-------------------------------------------|
G|-------------------------------------------|
D|-------------------------------------------|
A|-----2----------4--------------------------|
E|-------------------------------------------|
Can I sit down, for a second?
 
e|-------------------------------------------|
B|-------------------------------------------|
G|-------------------------------------------|
D|--2--4--5---4----2---0-----0---2-----------|
A|------------------------2------------------|
E|-------------------------------------------|
   Can I      breathe?
 
e|-------------------------------------------|
B|-------------------------------------------|
G|-------------------------------------------|
D|-------------------------------------------|
A|-----------2---------4---------------------|
E|-------------------------------------------|
      Can I exhale,     for a minute?
 
e|-------------------------------------------|
B|-------------------------------------------|
G|-------------------------------------------|
D|--2--4---5---4---2--0--------2-------------|
A|-------------------------------------------|
E|-------------------------------------------|
   Can we talk it out I don't get it
 
e|-------------------------------------------|
B|-------------------------------------------|
G|-------------------------------------------|
D|-------------------------------------------|
A|-----2----------4--------------------------|
E|-------------------------------------------|
Can I calm down, for a moment?
 
e|-------------------------------------------|
B|-------------------------------------------|
G|-------------------------------------------|
D|--2--4--5---4----2---0-----0---2-----------|
A|------------------------2------------------|
E|-------------------------------------------|
   Can I      breathe?
 
e|-------------------------------------------|
B|-------------------------------------------|
G|-------------------------------------------|
D|-------------------------------------------|
A|---2--------------4------------------------|
E|-------------------------------------------|
For just one second, baby
 
 
[Outro]
e|-------------------------------------------|
B|-------------------------------------------|
G|-------------------------------------------|
D|---2--4--5---4----2---0-----0---2----------|
A|------------------------2------------------|
E|-------------------------------------------|
Can I  breathe?
 
e|-------------------------------------------|
B|-------------------------------------------|
G|-------------------------------------------|
D|-------------------------------------------|
A|-------2--------------4--------------------|
E|-------------------------------------------|
Can I breathe
 
e|-------------------------------------------|
B|-------------------------------------------|
G|-------------------------------------------|
D|---2--4--5---4----2---0-----0---2----------|
A|------------------------2------------------|
E|-------------------------------------------|
Can I  breathe?
 
e|-------------------------------------------|
B|-------------------------------------------|
G|-------------------------------------------|
D|-------------------------------------------|
A|-------2--------------4--------------------|
E|-------------------------------------------|
Can I breathe
 
e|-------------------------------------------|
B|-------------------------------------------|
G|-------------------------------------------|
D|---2--4--5---4----2---0-----0---2----------|
A|------------------------2------------------|
E|-------------------------------------------|
Can I  breathe?
 
e|-------------------------------------------|
B|-------------------------------------------|
G|-------------------------------------------|
D|-------------------------------------------|
A|-------2--------------4--------------------|
E|-------------------------------------------|
Can I breathe
e|-------------------------------------------|
B|-------------------------------------------|
G|-------------------------------------------|
D|---2--4--5---4----2---0-----0---2----------|
A|------------------------2------------------|
E|-------------------------------------------|
     Na na     nah
 
 
e|-------------------------------------------|
B|-------------------------------------------|
G|-------------------------------------------|
D|-------------------------------------------|
A|-------2--------------4--------------------|
E|-------------------------------------------|
          Na na na       na na na
e|-------------------------------------------|
B|-------------------------------------------|
G|-------------------------------------------|
D|---2--4--5---4----2---0-----0---2----------|
A|------------------------2------------------|
E|-------------------------------------------|
    Nay        na   na  na          na na na, Nay
e|-------------------------------------------|
B|-------------------------------------------|
G|-------------------------------------------|
D|-------------------------------------------|
A|-------2--------------4--------------------|
E|-------------------------------------------|
          Na na na       na na na
e|-------------------------------------------|
B|-------------------------------------------|
G|-------------------------------------------|
D|---2--4--5---4----2---0-----0---2----------|
A|------------------------2------------------|
E|-------------------------------------------|
    Nay        na   na  na          na na na, Nay
            
Submit corrections

↑ Back to top | Tablatures and chords for acoustic guitar and electric guitar, ukulele, drums are parodies/interpretations of the original songs. You may use it for private study, scholarship, research or language learning purposes only