Home » R » Rusted Root »

Rusted Root - Send Me On My Way Bass

Artists:  A B C D E F G H I J K L M N O P Q R S T U V W X Y Z # 

Send Me On My Way Bass
Version #1
Rusted Root


Copy URL
intro
g|--------------------------------------|
d|--------------------------------------|
a|---3-3------3-3--3h5-3---------1h3----|
e|3h5-----3h5------------5-1-1------1-1-|
     (on my way)

verse                                   *
g|-------------------------------------|----------------------|
d|--------------------5-----5-5/7-5----|----------------------|
a|3-3-----3-3-----3-3---3-3----------7-|----1h3----1h3-----3-3|
e|----3h5-----3h5----------------------|1-1----1-1-----3-1----|


g|---------------------5-5/7-5-------5-5/7-5------|
d|----5---------5----5---------5---5---------5----| then go to * again
a|3-3-------3-3----3-------------3-------------3--|
e|------3h5---------------------------------------|

chorus
g|------------------------------------------|
d|*-----------------------7-7/9-7----------*|
a|*---------------------7---------7--------*|
e|-5-5--5-3-3--3-1-1--5-------------5-3-3-1-|

It's pretty much that all the way through.
            
Submit corrections

↑ Back to top | Tablatures and chords for acoustic guitar and electric guitar, ukulele, drums are parodies/interpretations of the original songs. You may use it for private study, scholarship, research or language learning purposes only