» » »

Rupert Holmes - Him Bass

Artists:  A B C D E F G H I J K L M N O P Q R S T U V W X Y Z # 

Him Bass

(ver. 1) Click to play this song!
Rupert Holmes
 Rating:
4/5 (4 votes)

 Him lessons Tabs too difficult? Try these video lessons and learn fast
 
                Him
Rupert Holmes
Bass Tab

112BPM, 4/4

Intro

|-h13\----|
|---------|
|---------|
|---------|

|-----------------|----------------|-----------------|-----------------|
|-----------------|----------------|-7---9---7---9-7-|----9---7-7-11-9-|
|-7---9---7---9-7-|----9---7-7-9-7-|---7---7---7-----|--7---7----------|
|---7---7---7-----|--7---7---------|-----------------|-----------------|

|-----------------|----------------|-----------------|------------------|
|-----------------|----------------|-7---9---7---9-7-|----9---7-7-------|
|-7---9---7---9-7-|----9---7-7-9-7-|---7---7---7-----|--7---7--------7h9|
|---7---7---7-----|--7---7---------|-----------------|------------7h9---|

Verse

|----------------|----------------|-----------------|----------------|
|----------------|----------------|-7---9---7---9-7-|----9---7-7-9-7-|
|-7-------7--9-7-|--------7-7-9-7-|---7---7---7-----|--7---7---------|
|---7-9-7--------|--7-9-7---------|-----------------|----------------|

|-----------------|----------------|-----------------|----------------|
|-6---4---6---4-6-|--6-4---6-6-4---|-----------------|----------------|
|---6---6---6-----|------6-------6-|-4---2---4---2-4-|--4-2---4-4-2---|
|-----------------|----------------|---4---4---4-----|------4-------4-|

Pre-Chorus

|-----------------|----------------|-----------------|----------------|
|---------7---4---|----------------|---------7---4---|----------------|
|---4-6-7---4---7-|--7-4---7-7-4---|---4-6-7---4---7-|--7-4---7-7-4---|
|-5---------------|------7-------7-|-5---------------|------7-------7-|

|-----------------|-----------------|-----------------|---------13-13-13\--|
|---------7---4---|-----------------|---------7---6-4-|-6-6-6-6s-----------|
|---4-6-7---4---7-|-7-7-4---7-7-4---|---4-6-7---7-----|--------------------|
|-5---------------|-------7-------7-|-5---------------|--------------------|

Chorus

|-----------|--------------|------x-----|-------------|
|-----------|--------------|-2-2------1-|-----------2-|
|-----------|------2-2-4-2-|------------|-4-4-----4---|
|-2----4----|-5------------|------------|-------------|

|------x-----|--------------|-----------|--------------|
|------------|------------2-|-----------|--------------|
|-5-5------4-|-2-2------4---|-----------|------2-2-4-2-|
|------------|--------2-----|-5----4----|-2------------|

|------------|--------------|-------6-----|
|-2-2--------|------------2-|-------------|
|----------4-|----------2---|-4-4-----6---|
|------------|-4-4----4-----|-------------|

Verse

|-----------------|----------------|-----------------|----------------|
|-----------------|----------------|-7-------7-----7-|--------7-7-9-7-|
|-7-------7-----7-|--------7-7-9-7-|---7-9-7---7-9---|--7-9-7---------|
|---7-9-7---7-9---|--7-9-7---------|-----------------|----------------|

|-----------------|----------------|-----------------|--4-6---4-----4-|
|-6---4---6---4-6-|--6-4---6-6-4---|-----------------|------6---4-6---|
|---6---6---6-----|------6-------6-|-4---2---4---2-4-|----------------|
|-----------------|----------------|---4---4---4-----|----------------|

Pre-Chorus

|-----------------|----------------|-----------------|----------------|
|---------7---4---|------------4---|-7---4---7---4---|------------4---|
|---4-6-7---4---7-|--7-4---7-7---7-|---7---7---4---7-|--7-4---7-7---7-|
|-5---------------|------7---------|-----------------|------7---------|

|-----------------|-----------------|-----------------|---------13-13-13\--|
|-7---4---7---4---|-------------4---|-7-7-4---7---4---|-6-6-6-6s-----------|
|---7---7---4---7-|-7-7-4---7-7---7-|-------7---7---6-|--------------------|
|-----------------|-------7---------|-----------------|--------------------|

Chorus

|-----------|--------------|------x-----|-------------|
|-----------|--------------|---2------1-|-----------2-|
|-----------|------2-2-4-2-|------------|-4-4-----4---|
|-2----4----|-5------------|-0----------|-------------|

|------x-----|--------------|-----------|--------------|
|------------|------------2-|-----------|--------------|
|-5-5------4-|-2-2------4---|-----------|------2-2-4-2-|
|------------|--------2-----|-5----4----|-2------------|

|------------|--------------|-------6-----|
|-2-2--------|------------2-|-------------|
|----------4-|----------2---|-4-4-----6---|
|------------|-4-4----4-----|-------------|

Verse
 
|-----------------|----------------|-----------------|-----------------|
|-----------------|----------------|-7-------7-----7-|-7-------7-7-9-7-|
|-7-------7-----7-|--------7-7-9-7-|---7-9-7---7-9---|---7-9-7---------|
|---7-9-7---7-9---|--7-9-7---------|-----------------|-----------------|

|-----------------|----------------|-----------------|---------------|
|-6-6---4-6---4-6-|--6-4---6-6-4---|-----------------|-------------2-|
|-----6-----6-----|------6-------6-|-4-4-2---2---2-4-|--4-2----2-4---|
|-----------------|----------------|-------4---4-----|------4--------|

Pre-Chorus

|-----------------|-----------------|-----------------|-----------------|
|---------7---4---|-----------------|---------7---4---|-----------------|
|---4-6-7---4---7-|-7-7-4---7-7-4---|---4-6-7---4---7-|-7-7-4---7-7-4---|
|-5---------------|-------7-------7-|-5---------------|-------7-------7-|

|-----------------|-----------------|----------------|---------13-13-13\--|
|---------7---4---|-----------------|---------7-4--4-|-6-6-6-6s-----------|
|---4-6-7---4---7-|-7-7-4---7-7-4---|---4-6-7--------|--------------------|
|-5---------------|-------7-------7-|-5--------------|--------------------|

Chorus

|-----------|--------------|------x-----|-------------|
|-----------|--------------|-2-2------1-|-----------2-|
|-----------|------2-2-4-2-|------------|-4-4-----4---|
|-2----4----|-5------------|------------|-------------|

|------x-----|--------------|-----------|--------------|
|------------|------------2-|-----------|--------------|
|-5-5------4-|-2-2------4---|-----------|------2-2-4-2-|
|------------|--------2-----|-5----4----|-2------------|

|------x-----|-------------|------x-----|--------------|
|-2-2------1-|-----------2-|------------|--------------|
|------------|-4-4-----4---|-5-5------4-|-2-2----4-----|
|------------|-------------|------------|----------5-4-|

|-----------|--------------|------x-----|-------------|
|-----------|--------------|-2-2------1-|-----------2-|
|-----------|------2-2-4-2-|------------|-4-4-----4---|
|-2----4----|-5------------|------------|-------------|

|-------x----|--------------|-----------|--------------|
|------------|------------2-|-----------|--------------|
|-5-5------4-|-2-2------4---|-----------|------2-2-4-2-|
|------------|--------2-----|-5----4----|-2------------|

|------x-----|-------------|------x-----|--------------|
|-2-2------1-|-----------2-|------------|--------------|
|------------|-4-4-----4---|-5-5------4-|-2-2----4-----|
|------------|-------------|------------|----------5-4-|

Ending

|-----------|--------------|------9-----|-------------|
|-----------|--------------|-2-2------1-|-----------2-|
|-----------|------2-2-4-2-|------------|-4-4-----4---|
|-2----4----|-5------------|------------|-------------|

|------7-----|--------------|-----------|--------------|
|------------|------------2-|-----------|--------------|
|-5-5------4-|-2-2------4---|-----------|------2-2-4-2-|
|------------|--------2-----|-5----4----|-2------------|

|------9-----|-------------*|
|-2-2------1-|-----------2-*|
|------------|-4-4-----4---*|
|------------|-------------*| fade
            
Submit corrections


        Him lessons Hard to play? Try these video lessons and learn fast Him lessons
        
↑ Back to top | Tablatures and chords for acoustic guitar and electric guitar, ukulele, drums are parodies/interpretations of the original songs. You may use it for private study, scholarship, research or language learning purposes only