Home » R » Rundgren Todd »

Rundgren Todd - Hello Its Me Tabs

Artists:  A B C D E F G H I J K L M N O P Q R S T U V W X Y Z # 

Hello Its Me Tabs

(ver. 1) Click to play this song!
Rundgren Todd
Hello It's Me
Todd Rundgren
1972
Written by Todd Rundgren



         Dm7               Cmaj7
E---------5--5--5-(5)--------7--7--7-(7)--------
B---------6--6--6-(6)--8-10--5--5--5-(5)--10-8--
G------2--7--7--7-(7)--------5--5--5-(5)--------
D--0-3------------------------------------------
A-----------------------------------------------
E-----------------------------------------------
  (Bass) (Keyboard)


    Dm7                 Cmaj7
E----5--5--5-(5)----------7--7--7-(7)-----------
B----6--6--6-(6)--8--10---5--5--5-(5)--10--8----
G----7--7--7-(7)----------5--5--5-(5)-----------
D-----------------------------------------------
A-----------------------------------------------
E-----------------------------------------------


       Dm7       Cmaj7
E-----------------------------------------------
B-----------------------------------------------
G-----------------------------------------------
D-------7--7-7-----9----------------------------
A-----------------------------------------------
E-----------------------------------------------
       Hello it's me  

   Dm7                        Cmaj7
E-----------------------------------------------
B-----------------------------------------------
G-----------------------------------------------
D--7------7--------7------7-----7----9----------
A---------------10----10----10-----------(10)---
E-----------------------------------------------
   I've thought about us for a long long time

  Bb                         Am
E-----------------------------------------------
B-----------------------------------------------
G-----------------------------------------------
D-----------------------------------------------
A--8--8-7---8----7---8----7---8----10-----(7)---
E-----------------------------------------------
  Maybe I think too much but something's wrong

 Bb                                  Am
E-----------------------------------------------
B-----------------------------------------------
G-----------------------------------------------
D-----------------------------------------------
A-8------8----7----8-----7---8---7---8---10---7-
E-----------------------------------------------
There's something here that doesn't last too long

  Bb                        Fmaj7
E----------------------------------------------
B----------------------------------------------
G----------------------------------------------
D----------------------------------------------
A--8--8-7---8----7----8---7---8--7-------------
E------------------------------------8---------
  Maybe I shouldn't think of you as mine

  Dm7   Cmaj7   Dm7
E----------------------------------------------
B----------------------------------------------
G----------------------------------------------
D--7-7----9--7---7-----7----7------------------
A------------------10----10--------------------
E----------------------------------------------
  Seeing you or seeing anything

     Cmaj7
E----------------------------------------------
B----------------------------------------------
G----------------------------------------------
D------7---7--9--------------------------------
A--10-----------10-(10)------------------------
E----------------------------------------------
   As much as I do you

  Bb                             Am
E----------------------------------------------
B----------------------------------------------
G----------------------------------------------
D----------------------------------------------
A--8--8----7----8--7----8----7----8--10---(7)--
E----------------------------------------------
   I take for granted that you're always there

  Bb                           Am
E----------------------------------------------
B----------------------------------------------
G----------------------------------------------
D----------------------------------------------
A--8--8----7----8--7----8---7---8----10---(7)--
E----------------------------------------------
   I take for granted that you just don't care

 Bb                          Fmaj7
E---------------------------------------------
B---------------------------------------------
G---------------------------------------------
D---------------------------------------------
A-8---8----7--8-----7----8-7---8-----8--7-----
E-------------------------------------------(8)
 Sometimes I can't help seeing all the way through

  Bb                   Fmaj7
E---------------------------------------------
B-11--10-----11--10-----11--10-----11--10-----
G--------10---------10---------9----------9---
D---------------------------------------------
A---------------------------------------------
E---------------------------------------------

  Bb                   Fmaj7
E---------------------------------------------
B-11--10-----11--10-----11--10-----11--10-----
G--------10---------10---------9----------9---
D---------------------------------------------
A---------------------------------------------
E---------------------------------------------


  Dm7                  Cmaj7
E--8----------8----------7--------7-----------
B-----10---------10---------8--------8--------
G-------10----------10--------9--------9------
D---------------------------------------------
A---------------------------------------------
E---------------------------------------------


 Dm7                  Cmaj7
E--8----------8----------7--------7-----------
B-----10---------10---------8--------8--------
G-------10----------10--------9--------9------
D---------------------------------------------
A---------------------------------------------
E---------------------------------------------


   Dm7   Cmaj7        Bb  Fmaj7
E---------------------------------------------
B---------------------------------------------
G---------------------------------------------
D--10---9-10--9---10-(12)-(10)----------------
A---------------------------------------------
E---------------------------------------------
   It's important to me

   Bb      Fmaj7       Cmaj7 Gmaj7
E---------------------------------------------
B---------------------------------------------
G-------------------------------15------------
D--12---10--12---10-12--(14)(12)--(14)-12--14-
A---------------------------------------------
E---------------------------------------------
  That you know you are free         'cause I

  Bb     C      Bb        Am       Dm7sus  G
E---------------------------------------------
B---------------------------------------------
G-10-12--9------------9-----------------------
D------------10-12--------10------------------
A-------------------------------12-(10)-------
E---------------------------------------------
  Never want to make you change for me

   Dm7    Cmaj7 Dm7
E---------------------------------------------
B---------------------------------------------
G---------------------------------------------
D--(7)--7---9--7----7-------7-----------------
A-----------------------10------10------------
E---------------------------------------------
  Think of me you know that I'd be

          Cmaj7
E---------------------------------------------
B---------------------------------------------
G---------------------------------------------
D---7-------7--9------------------------------
A--------10------(10)-------------------------
E---------------------------------------------
   With you if I could

  Bb                          Am
E---------------------------------------------
B---------------------------------------------
G---------------------------------------------
D---------------------------------------------
A--8----8---7--8----7--8---7--8----8-10--(7)--
E---------------------------------------------
  I'll come around to see you once in a while

  Bb                   Am
E---------------------------------------------
B---------------------------------------------
G---------------------------------------------
D---------------------------------------------
A-8--8--7-8-7---8---7--8-10--10--(7)----------
E---------------------------------------------
  Or if I ever need a reason to smile

  Bb                         Fmaj7
E---------------------------------------------
B---------------------------------------------
G---------------------------------------------
D---------------------------------------------
A-8-----8----7---8-7--8---7----8---7----------
E-------------------------------------(8)-----
  And spend the night if you think I should

 Bb                   Fmaj7
E---------------------------------------------
B-11--10-----11--10-----11--10-----11--10-----
G--------10---------10---------9----------9---
D---------------------------------------------
A---------------------------------------------
E---------------------------------------------

  Bb                   Fmaj7
E---------------------------------------------
B-11--10-----11--10-----11--10-----11--10-----
G--------10---------10---------9----------9---
D---------------------------------------------
A---------------------------------------------
E---------------------------------------------


  Dm7                  Cmaj7
E--8----------8----------7--------7-----------
B-----10---------10---------8--------8--------
G-------10----------10--------9--------9------
D---------------------------------------------
A---------------------------------------------
E---------------------------------------------


 Dm7                  Cmaj7
E--8----------8----------7--------7-----------
B-----10---------10---------8--------8--------
G-------10----------10--------9--------9------
D---------------------------------------------
A---------------------------------------------
E---------------------------------------------


   Dm7   Cmaj7        Bb  Fmaj7
E---------------------------------------------
B---------------------------------------------
G---------------------------------------------
D--10---9-10--9---10-(12)-(10)----------------
A---------------------------------------------
E---------------------------------------------
   It's important to me

   Bb      Fmaj7       Cmaj7 Gmaj7
E---------------------------------------------
B---------------------------------------------
G-------------------------------15------------
D--12---10--12---10-12--(14)(12)--(14)-12--14-
A---------------------------------------------
E---------------------------------------------
  That you know you are free         'cause I

  Bb     C      Bb        Am       Dm7sus  G
E---------------------------------------------
B---------------------------------------------
G-10-12--9------------9-----------------------
D------------10-12--------10------------------
A-------------------------------12-(10)-------
E---------------------------------------------
  Never want to make you change for me

   Dm7    Cmaj7 Dm7
E---------------------------------------------
B---------------------------------------------
G---------------------------------------------
D--(7)--7---9--7----7-------7-----------------
A-----------------------10------10------------
E---------------------------------------------
  Think of me you know that I'd be

          Cmaj7
E---------------------------------------------
B---------------------------------------------
G---------------------------------------------
D---7-------7--9------------------------------
A--------10------(10)-------------------------
E---------------------------------------------
   With you if I could

  Bb                          Am
E---------------------------------------------
B---------------------------------------------
G---------------------------------------------
D---------------------------------------------
A--8----8---7--8----7--8---7--8----8-10--(7)--
E---------------------------------------------
  I'll come around to see you once in a while

  Bb                   Am
E---------------------------------------------
B---------------------------------------------
G---------------------------------------------
D---------------------------------------------
A-8--8--7-8-7---8---7--8-10--10--(7)----------
E---------------------------------------------
  Or if I ever need a reason to smile

  Bb                         Fmaj7
E---------------------------------------------
B---------------------------------------------
G---------------------------------------------
D---------------------------------------------
A-8-----8----7---8-7--8---7----8---7----------
E-------------------------------------(8)-----
  And spend the night if you think I should
            
Submit corrections

↑ Back to top | Tablatures and chords for acoustic guitar and electric guitar, ukulele, drums are parodies/interpretations of the original songs. You may use it for private study, scholarship, research or language learning purposes only