» » »

Runaways - Blackmail Tabs

Artists:  A B C D E F G H I J K L M N O P Q R S T U V W X Y Z # 

Blackmail Tabs

(ver. 1) Click to play this song!
Runaways
 Rating:
4/5 (4 votes)

 Blackmail lessons Tabs too difficult? Try these video lessons and learn fast
 
                

Its a pretty easy song. Just Follow the Rhyme.



INTRO

e---------------------|
B---------------------|
G---------------------| x4
D---3--5-----3--5-----|
A---3--5-----3--5-----|
E---1--3-----1--3-----|




CHORUS

e----------------------------------------------------|
B----------------------------------------------------|
G----------------------------------------------------|
D---5-5-7-7-5-5-7-7----------------------------------|
A---3-3-3-3-3-3-3-3---5-5-7-7-5-5-7-7---3-3-3-3------|
E---------------------3-3-3-3-3-3-3-3---1-1-1-1------|


e--------------|----------------------|
B--------------|----------------------|
G--------------|----------------------|
D---3--4-------|----------------------|
A---3--4-------|----5-5-7-7-5-5-7-7---|
E---1--2-------|----3-3-3-3-3-3-3-3---|



INTRO
CHORUS



SOLO  (this plays de second guitar during the solo)

e-------------------------------------------------|
B-------------------------------------------------|
G-------------------------------------------------|
D---------------5-5-7-7----------------5-5-7-7----|
A---5-5-7-7-----3-3-3-3-----5-5-7-7----3-3-3-3----|
E---3-3-3-3-----------------3-3-3-3---------------|


e--------------|----------------------|
B--------------|----------------------|
G--------------|----------------------|
D---3--4-------|----------------------|
A---3--4-------|----5-5-7-7-5-5-7-7---|
E---1--2-------|----3-3-3-3-3-3-3-3---|




INTRO
CHORUS
INTRO
            
Submit corrections


        Blackmail lessons Hard to play? Try these video lessons and learn fast Blackmail lessons
        
↑ Back to top | Tablatures and chords for acoustic guitar and electric guitar, ukulele, drums are parodies/interpretations of the original songs. You may use it for private study, scholarship, research or language learning purposes only