Home » R » Rufus Wainwright »

Rufus Wainwright - Going To A Town Tabs

Artists:  A B C D E F G H I J K L M N O P Q R S T U V W X Y Z # 

Going To A Town Tabs

(ver. 1) Click to play this song!
Rufus Wainwright
INTRO

-------------------------------------------------|
-------------------------------------------------|
--6-6---6-6---6-6---6-6---6-6---6-6---6-6---6-6--|
--6-6---6-6---6-6---6-6---6-6---6-6---6-6---6-6--|
--8-8---8-8---8-8---8-8---8-8---8-8---8-8---8-8--|
--6-----6-----6-----6-----6-----6-----6-----6----|

VERSE *****************************************************************

I'm going to a town that has already been burnt down
I'm going to a place that has already been disgraced
I'm gonna see some folks who have already been let down
I'm so tired of America

I'm gonna make it up for all of The Sunday Times
I'm gonna make it up for all of the nursery rhymes
They never really seem to want to tell the truth
I'm so tired of you, America

Tell me, do you really think you go to hell for having loved?
Tell me, enough of thinking everything that you've done is good
I really need to know, after soaking the body of Jesus Christ in blood
I'm so tired of America

I really need to know
I may just never see you again, or might as well
You took advantage of a world that loved you well
I'm going to a town that has already been burnt down
I'm so tired of you, America

----------------------------------------------------------------------|
----------------------------------------------------------------------|
-6-6-6-6-6-6-6-6--6-6-6-6-6-6-6-6--5-5-5-5-5-5-5-5--5-5-5-5-5-5-5-5---|
-6-6-6-6-6-6-6-6--5-5-5-5-5-5-5-5--5-5-5-5-5-5-5-5--3-3-3-3-3-3-3-3---|
-8-8-8-8-8-8-8-8--6-6-6-6-6-6-6-6--6-6-6-6-6-6-6-6--4-4-4-4-4-4-4-4---|
-6---6---6---6----6---6---6---6----4---4---4---4----4---4---4---4-----|

fin couplet 1
-------------------------------------------------- ----------------|
-------------------------------------------------- ----------------|
-3-3-3-3-3-3-3---0-0-0-0-0-0-0-0------------------ ----------------|
-3-3-3-3-3-3-3---2-2-2-2-2-2-2-2--3-3-3-3-3-3-3-3- 3-3-3-3-3-3-3-3-|
-4-4-4-4-4-4-4---3-3-3-3-3-3-3-3--3-3-3-3-3-3-3-3- 3-3-3-3-3-3-3-3-|
-3---3---3---3---3---3---3---3----1---1---1---1--- 1---1---1---1---|

CHORUS *****************************************************************

Making my own way home, ain't gonna be alone
I've got a life to lead, America
I've got a life to lead



-----------------------------------------|
-----------------------------------------|
-----------------------------------------|
-3-3-3-3-3-3-3-3-3-3-3-3-3-3-3-3-3-3-3-3-|
-4-4-4-4-3-3-3-3-4-4-4-4-3-3-3-3-4-4-4-4-|
-6---6---1---1---6---6---1---1---6---6---|

---------------------------------------------------------|
---------------------------------------------------------|
0-0-0-0-0-0-0-0-0-0-0-0-0-0--0-0-0-0-0-0-0-0-0-0-0-0-0-0-|
3-3-3-3-3-3-3-3-3-3-3-3-3-3--2-2-2-2-2-2-2-2-2-2-2-2-2-2-|
2-2-2-2-2-2-2-2-2-2-2-2-2-2--3-3-3-3-3-3-3-3-3-3-3-3-3-3-|
3---3---3---3---3---3---3----3---3---3---3---3---3---3---|

fin chorus 1

to lead.....
--------|
--------|
--6-6---|
--6-6---|
--8-8---|
--6-----| (X 14)

PONT ******************************************

Making my own way home, ain't gonna be alone
I've got a life to lead, America
I've got a life to lead
I got a soul to feed
I got a dream to heed
And that's all I need

Making my own way home, ain't gonna be alone
I'm going to a town
That has already been burnt down

------------------------------------------------------------------------|
------------------------------------------------------------------------|
-6-6--------5-5--------3-3--------2-2-------------------0-0-------------|
-6-6--------6-6--------1-1--------2-2--------4-4--------2-2--------3-3--|
-8-8--------6-6--------1-1--------0-0--------1-1--------3-3--------3-3--|
-6----(X4)--4----(X8)--2----(x8)--1----(X4)--2----(X2)--3----(X2)--1----| (X2)


------------------------------------------------------------------------|
------------------------------------------------------------------------|
-6-6--------5-5--------3-3--------2-2-------------------0-0-------------|
-6-6--------6-6--------1-1--------2-2--------4-4--------3-3--------2-2--|
-8-8--------6-6--------1-1--------0-0--------1-1--------2-2--------3-3--|
-6----(X4)--4----(X8)--2----(x8)--1----(X8)--2----(X2)--3----(X2)--3----| (X2)


---
---
---
-3--
-5--
-5--
            
Submit corrections

↑ Back to top | Tablatures and chords for acoustic guitar and electric guitar, ukulele, drums are parodies/interpretations of the original songs. You may use it for private study, scholarship, research or language learning purposes only