Home » R » Rudi Myntevik »

Rudi Myntevik - I-Spy Tabs

Artists:  A B C D E F G H I J K L M N O P Q R S T U V W X Y Z # 

I-Spy Tabs

(ver. 1) Click to play this song!
Rudi Myntevik
Tuning: Standard EADGBE

e|---------------------------------------------------------------------------|
B|---------------------------------------------------------------------------|
G|----------------------------------------2-0--------------------------------|
D|---------------------------------------------2-0-2-------------------------|
A|0-222--0000-333--2220-222--0000-333--222-----------------------------------|
E|---------------------------------------------------------------------------|

e|---------------------------------------------------------------------------|
B|---------------------------------------------------------------------------|
G|---------------------------6-7-7-7-6-----7---------------------------------|
D|----6-7-7-7-6-----7----7-9-----------9-9---7-------------------------------|
A|7-9-----------9-9---7------------------------------------------------------|
E|---------------------------------------------------------------------------|

e|---------------------------------------------------------------------------|
B|---------------------------------------------------------------------------|
G|---------------------------6-7-7-76---6------------------------------------|
D|----6-7-7-7-6-----7----7-9----------9--------------------------------------|
A|7-9-----------9-9---7------------------------------------------------------|
E|---------------------------------------------------------------------------|            
Submit corrections

↑ Back to top | Tablatures and chords for acoustic guitar and electric guitar, ukulele, drums are parodies/interpretations of the original songs. You may use it for private study, scholarship, research or language learning purposes only