Home » R » Rudi Myntevik »

Rudi Myntevik - Big Time Chords

Artists:  A B C D E F G H I J K L M N O P Q R S T U V W X Y Z # 

Big Time Chords

(ver. 1) Click to play this song!
Rudi Myntevik
e|---------------------------------------------------------------------------|
B|---------------------------------------------------------------------------|
G|---------------------------------------------------------------------------|
D|------12^---------12^--------12^-------12^-------12^-----------------------| x2
A|11-11-----11-11------11-11------11-11-----11-11-----11-11------------------|
E|11-11-----11-11------11-11------11-11-----11-11-----11-11------------------|

e|---------------------------------------------------------------------------|
B|---------------------------------------------------------------------------|
G|---------------------------------------------------------------------------|
D|12^-~----------------------------------------------------------------------|
A|11--~----------------------------------------------------------------------|
E|11--~----------------------------------------------------------------------|

Verse
e|---------------------|
B|---------------------|
G|----------2--0-------|
D|--0-2-0-0------4-0---|
A|0--------------------|
E|---------------------|

Intro

D A G A

Verse
    D          A       G    D A G
You drive your daddy's car
        D        A       G    D A G
But you drove us all too far
       D      A    G        D A G
You've got so many friends
            D       A      G    D A G
But they'll see you in the end

Chorus
D   A         G                  A
Big time, you ain't no friend of mine
D   A         G                  A
Big time, you ain't no friend of mine
D   A         G                  A
Big time, you ain't no friend of mine
D   A         G                  A
Big time, you ain't no friend of mine
            
Submit corrections

↑ Back to top | Tablatures and chords for acoustic guitar and electric guitar, ukulele, drums are parodies/interpretations of the original songs. You may use it for private study, scholarship, research or language learning purposes only