Home » R » Roy Orbison »

Roy Orbison - Sweet Caroline Bass

Artists:  A B C D E F G H I J K L M N O P Q R S T U V W X Y Z # 

Sweet Caroline Bass

(ver. 1) Click to play this song!
Roy Orbison
Tuning: EADG

0:08

G|------------------------------------------------------|
D|12\---5-----------------------5-------3---------------|
A|----------------5-----------------------5-------------|
E|------------------3-----------------------3-----------|

G|----------------------------5-------------------------------------------------------------------|.
D|----------------------------------5-----------2-3-----------------------3-----------------------|.
A|3-----------------------3---------------3-----------------------------3-----3-----------0-----2-|.
E|----------------------3-----------------------------------------------------------1-------------|.
                                                                                                   . x2
G|----------------------------5-------------------------------------------------------------------|.
D|----------------------------------5-----------2-5-----------------------5-------3---------------|.
A|3-----------------------3---------------3-----------------5-----------------------5-------------|.
E|----------------------3-------------------------------------3-----------------------3-----------|.

0:41

G|------------------------------------------------------------------------------------------------|
D|----------------------------------------------5-------------------------------------------2-----|
A|3-----------3-----------3-----------3-----------3-----------3-----------3-----------3---5-------|
E|----------------------3-----------3-----------------------------------3-----------3-------------|

G|------------------------------------------------------------------------------------------------|
D|5-----------5-----------5-----------5-----------3-----------3-----------3-----------3-----------|
A|----------5-----------------------5-----------------------3-----------------------3-------------|
E|------------------------------------------------------------------------------------------------|

G|------------------------------------------------|
D|5-----5-----5-----5-----5-----3-----2-----------|
A|------------------------------------------5-----|
E|------------------------------------------------|

0:59

G|------------------------------------------------------------------------------------------------|
D|------------------------3-----3-----3-----3-----3-----3-----3-----3-----3-----3-----3-----3-----|
A|3-----3-----3-----3---------------------------3-----------------------3-------------------------|
E|------------------------------------------------------------------------------------------------|

G|------------------------------------------------|
D|5-----5-----5-----5-----5-----3-----2-----------|
A|----------------------5-------------------5-----|
E|------------------------------------------------|

1:10

G|------------------------------------------------------------------------------------------------|
D|------------------------3-----3-----3-----3-----3-----3-----3-----3-----3-----3-----3-----3---4-|
A|3-----3-----3-----3---------------------------3-----------------------3-------------------------|
E|------------------------------------------------------------------------------------------------|

G|------------------------------------------------|
D|5-----------3-----------2-----------------------|
A|------------------------------------5-----------|
E|------------------------------------------------|

1:21

G|----------------------------5-------------------------------------------------------------------|.
D|----------------------------------5-----------2-3-----------------------3-----------------------|.
A|3-----------------------3---------------3-----------------------------3-----3-----------0-----2-|.
E|----------------------3-----------------------------------------------------------1-------------|.
                                                                                                   . x2
G|----------------------------5-------------------------------------------------------------------|.
D|----------------------------------5-----------2-5-----------------------5-------3---------------|.
A|3-----------------------3---------------3-----------------5-----------------------5-------------|.
E|----------------------3-------------------------------------3-----------------------3-----------|.

1:50

G|------------------------------------------------------------------------------------------------|
D|----------------------------------------------5-------------------------------------------2-----|
A|3-----------3-----------3-----------3-----------3-----------3-----------3-----------3---5-------|
E|----------------------3-----------------------------------------------3-------------------------|

G|------------------------------------------------------------------------------------------------|
D|5-----------5-----------5-----------5-----------3-----------3-----------3-----------3---------4-|
A|----------------------5-----------------------------------3-----------------------3-------------|
E|------------------------------------------------------------------------------------------------|

G|------------------------------------------------|
D|5-----5-----5-----5-----5-----3-----2-----------|
A|------------------------------------------5-----|
E|------------------------------------------------|

2:08

G|------------------------------------------------------------------------------------------------|
D|------------------------3-----3-----3-----3-----3-----3-----3-----3-----3-----3-----3-----3-----|
A|3-----3-----3-----3---------------3-----------------------3-----------------------3-------------|
E|------------------------------------------------------------------------------------------------|

G|------------------------------------------------|
D|5-----5-----5-----5-----5-----3-----2-----------|
A|----------------------5-------------------5-----|
E|------------------------------------------------|

2:19

G|------------------------------------------------------------------------------------------------|
D|------------------------3-----3-----3-----3-----3-----3-----3-----3-----3-----3-----3-----3-----|
A|3-----3-----3-----3---------------------------3-----------------------3-------------------------|
E|------------------------------------------------------------------------------------------------|

G|------------------------------------------------|
D|5-----------3-----------2-----------------------|
A|------------------------------------5-----------|
E|------------------------------------------------|

2:30

G|------------------------------------------------------------------------------------------------|
D|------------------------3-----3-----3-----3-----3-----3-----3-----3-----3-----3-----3-----3-----|
A|3-----3-----3-----3---------------------------3-----------------------3-------------------------|
E|------------------------------------------------------------------------------------------------|

G|------------------------------------------------------------------------------------|
D|5-----5-----5-----5-----5-----------------------------------------------------------|
A|----------------------5-------------------------------------------------------------|
E|------------------------------3-----------------------------------------------------|

2:44

G|------------------------------------------------------------------------------------------------|
D|----------------------------------------------2-3-----3-----3-----3-----3-----3-----3-----3-----|
A|3-----3-----3-----3-----3-----3-----3-----3-5-------------------------3-------------------------|
E|------------------------------------------------------------------------------------------------|

G|------------------------------------------------------------|
D|5-----5-----5-----5-----5-----5-----5-----------------------|
A|----------------------5-------------------------------3-----|
E|--------------------------------------------3---------------|
            
Submit corrections

↑ Back to top | Tablatures and chords for acoustic guitar and electric guitar, ukulele, drums are parodies/interpretations of the original songs. You may use it for private study, scholarship, research or language learning purposes only