Home » R » Roy Orbison »

Roy Orbison - Pretty Woman Tabs

Artists:  A B C D E F G H I J K L M N O P Q R S T U V W X Y Z # 

Pretty Woman Tabs

(ver. 1) Click to play this song!
Roy Orbison
[Intro]

e|---------------------------------------------------------------------------|
B|---------------------------------------------------------------------------|
G|---------------------------------------------------------------------------|   x2
D|-------------------0-------------------------------------------------------|
A|--------------2------------------------------------------------------------|
E|--0--0---4-----------------------------------------------------------------|

e|---------------------------------------------------------------------------|
B|---------------------------------------------------------------------------| x4
G|---------------------------------------------------------------------------|
D|--------------------0----4-----2----0--------------------------------------|
A|---------------2-----------------------------------------------------------|
E|--0---0----4---------------------------------------------------------------|

            
Submit corrections

↑ Back to top | Tablatures and chords for acoustic guitar and electric guitar, ukulele, drums are parodies/interpretations of the original songs. You may use it for private study, scholarship, research or language learning purposes only