Home » R » Roy Orbison »

Roy Orbison - Pretty Paper Bass

Artists:  A B C D E F G H I J K L M N O P Q R S T U V W X Y Z # 

Pretty Paper Bass

(ver. 1) Click to play this song!
Roy Orbison
Tuning: EADG
 
G|------------------------------------------------------------------------|
D|------------------------------------------------------------------------|
A|------------------5-----------------3-----2-----------------2-----5-----|
E|3-----------------------------------------------5-----3-----------------|
 
0:11
 
G|------------------------------------------------------------------------|
D|------------------------------------------------------------------------|
A|------------5-----------------------5-----------------5-----------0-----|
E|3-----------------3-----------3-----------------------------------------|
 
G|------------------------------------------------------------------------|
D|------------------------------------------------------------------------|
A|5-----------------5-----------5-----------------------2-----------5-----|
E|------------------------------------3-----------------------------------|
 
0:29
 
G|------------------------------------------------------------------------|
D|------------------------------------------------5-----------------------|
A|------------------------2-----5-----3-----------------3-----------------|
E|3-----------------3-----------------------------------------------------|
 
G|------------------------------------------------------------------------|
D|------------------------------------------------------------------------|
A|------------------5-----------------3-----2-----------------2-----5-----|
E|3-----------------------------------------------5-----3-----------------|
 
0:47
 
G|------------------------------------------------------------------------|
D|5-----------------------------------5-----------------------------------|
A|------------------5-----------------------------------------------------|
E|------------------------------------------------------3-----------------|
 
G|------------------------------------------------------------------------|
D|------------------------------------5-----------------------------------|
A|------------------5-----------------------------------------2-----5-----|
E|3-----------------------------------------------------3-----------------|
 
1:05
 
G|------------------------------------------------------------------------|
D|5-----------------------------------------------5-----------------------|
A|------------5-----------2-----5-----3-----------------3-----------------|
E|------------------3-----------------------------------------------------|
 
G|------------------------------------------------------------------------|
D|------------------------------2-----------------------------2-----4-----|
A|0-----------------0-----4-----------5-----------0-----5-----------------|
E|------------------------------------------------------------------------|
 
1:22
 
G|------------------------------------------------------------------------|
D|5-----------------------------------5-----------------5-----------------|
A|------------------5-----------------------------------------------------|
E|------------------------------------------------------------------------|
 
G|------------------------------------------------------------------------|
D|5-----------------------------------5-----------------------------------|
A|------------------5-----------------------------------------2-----5-----|
E|------------------------------------------------------3-----------------|
 
1:41
 
G|------------------------------------------------------------------------|
D|5-----------------------------------------------5-----------------------|
A|------------5-----------2-----5-----3-----------------3-----------------|
E|------------------3-----------------------------------------------------|
 
G|------------------------------------------------------------------------|
D|------------------------------4-----5-----------------------------------|
A|------------------5-----------------------------------------2-----5-----|
E|3-----------------------------------------------3-----3-----------------|
 
1:58
 
G|------------------------------------------------------------------------|
D|------------------------------------------------------------------------|
A|------------5-----------------------5-----------------5-----------0-----|
E|3-----------------3-----------3-----------------------------------------|
 
G|------------------------------------------------------------------------|
D|------------------------------------------------------------------------|
A|5-----------------5-----------5-----------------------2-----------5-----|
E|------------------------------------3-----------------------------------|
 
G|------------------------------------------------------------|
D|------------------------------------------------5-----------|
A|------------------------2-----5-----3-----------------3-----|
E|3-----------------3-----------------------------------------|
 
 
 
2:32
 
G|--------------------------------------------------------------|
D|5-----------------5-----------------5-------------------5-----|
A|--------------------------------------------------------------|
E|--------------------------------------------------------------|
            
Submit corrections

↑ Back to top | Tablatures and chords for acoustic guitar and electric guitar, ukulele, drums are parodies/interpretations of the original songs. You may use it for private study, scholarship, research or language learning purposes only