Home » R » Roy Orbison »

Roy Orbison - In Dreams Bass

Artists:  A B C D E F G H I J K L M N O P Q R S T U V W X Y Z # 

In Dreams Bass

(ver. 1) Click to play this song!
Roy Orbison
Intro:  (Lightly Played Under Vocals)
 
    A candy coloured clown they call the sandman...Tiptoes to my
G|--------------------------------------------------------------|
D|-------------------------------------------------3------------|
A|-3--------------------------------------0---------------------|
E|--------------------------------------------------------------|
 
  Room every night...Just to sprinkle stardust and to whisper
G|-----------------------------------------------------------|
D|-----------5-----------------------------------------------|
A|--------------------3--------------------------------0-----|
E|-----------------------------------------------------------|
 
  Go to sleep...Every thing is all right...
G|----------------------------------------|
D|----------------------------------------|
A|----------------------------------3-----|
E|------1--------------3------------------|
 
Verse 1:
G|---------------------------------------------------------------------|
D|-----5--------5---------7-------7-6-5-------5------------5------5--2-|
A|-3--------3------7--5-------5-----------5------5--4--3-------3-------|
E|---------------------------------------------------------------------|
 
G|--------------------------------------------------------------------|
D|-----5-------5---------7-------7-6-5-------5------------5------2--5-|
A|-3-------3------7--5-------5-----------5------5--4--3-------3-------|
E|--------------------------------------------------------------------|
 
Verse 2:
G|-----------------------------------------------------------------------|
D|-----5-----------------------------------------------------5------2--5-|
A|-3-------3---2--0------5-----------------3-------5--4--3-------3-------|
E|-------------------3-------3---3--2--1-------3-------------------------|
 
G|----------------------------------------------------------------------|
D|-----5-------5---------7-------7-------------------5------------5---5-|
A|-3-------3------7--5-------5------5--3----3----5-------3----5---------|
E|----------------------------------------------------------------------|
 
G|-------------------|
D|-5-5--3-3--2-2-----|
A|---------------5-5-|
E|-------------------|
 
Bridge:                                                             (Break)
G|------------------------------------------------------------------------|
D|-----5----3----3-------5--------5--------5----3----3--------5-------5-5-|
A|-3-----------------3--------3--------3------------------3-------3-------|
E|------------------------------------------------------------------------|
 
                                   (Break)
G|-------------------------------------------------------------|
D|-------------------------7-------7-7--------5-5-5------5-5-5-|
A|-3-3-3------3-3-3----5-------5-------------------------------|
E|-------------------------------------------------------------|
 
G|---------------------|
D|-----5-------5-3-2---|
A|-3-------3---------5-|
E|---------------------|
 
Verse 3:
G|----------------------------------------------------------------------|
D|-----5----3-------5---5---5---5----------5----3-------5---5---5---5---|
A|-3------------3-----------------5----3------------3-----------------5-|
E|----------------------------------------------------------------------|
 
Outro:                                                              (END)
G|----------------------------------------------------------------------|
D|-----5--------5--------7-------7-------7----5-------------------5-----|
A|-3-------3---------5-------5-------5------------5----3---3-3-3------3-|
E|----------------------------------------------------------------------|
            
Submit corrections

↑ Back to top | Tablatures and chords for acoustic guitar and electric guitar, ukulele, drums are parodies/interpretations of the original songs. You may use it for private study, scholarship, research or language learning purposes only