Home » R » Roy Buchanan »

Roy Buchanan - Foxy Lady Tabs

Artists:  A B C D E F G H I J K L M N O P Q R S T U V W X Y Z # 

Foxy Lady Tabs

(ver. 1) Click to play this song!
Roy Buchanan
[Intro]
GUITAR                                   YEAH!
e|---------------------------------------------------------------------------|
B|------8-------8-------8---------------------8------8------8----------------|
G|------7-------7-------7---------------------7------7------7----------------|
D|------6-------6-------6---------------------6------6------6----------------|
A|------7-------7-------7------0-1-2----------7------7------7--------0-1-2---|
E|-0-0-----0-0----- 0-0------3------------0-0----0-0----0-0--------3---------|
   (EAug9)
 
BASS
G|-----9--------9-------9---------------------9------9------9------------------|
D|-----------------------------------------------------------------------------|
A|-7-7-----7-7------7-7--------0-1-2------7-7----7-7----7-7----------0-1-2-----
E|---------------------------3-------------------------------------3-----------|
 
 
[Verse 1]
GUITAR
      I KNOW you're a cute little Heartbreaker!    Foxy,  YEAH!
e|-------------------------------------------------------------------------------------|
B|------8----------8----------8-------------------------8------8------8----------------|
G|------7----------7----------7-------------------------7------7------7----------------|
D|------6----------6----------6-------------------------6------6------6----------------|
A|------7----------7----------7----------0-1-2----------7------7------7--------0-1-2---|
E|-0-0---------0-0---------0-0---------3------------0-0----0-0----0-0--------3---------|
 
BASS
G|-----9-----------9----------9-------------------------9------9------9----------------|
D|-------------------------------------------------------------------------------------|
A|-7-7---------7-7---------7-7-----------0-1-2------7-7----7-7----7-7---------0-1-2----
E|-------------------------------------3-------------------------------------3---------|
 
 
 
 
 
[Verse 2]
 
GUITAR
      I KNOW you're a cute little Lovemaker!    Foxy,  YEAH!
e|-------------------------------------------------------------------------------------|
B|------8----------8----------8-------------------------8------8------8----------------|
G|------7----------7----------7-------------------------7------7------7----------------|
D|------6----------6----------6-------------------------6------6------6----------------|
A|------7----------7----------7----------0-1-2----------7------7------7--------0-1-2---|
E|-0-0---------0-0---------0-0---------3------------0-0----0-0----0-0--------3---------|
 
BASS
G|-----9-----------9----------9-------------------------9------9------9----------------|
D|-------------------------------------------------------------------------------------|
A|-7-7---------7-7---------7-7-----------0-1-2------7-7----7-7----7-7---------0-1-2----
E|-------------------------------------3-------------------------------------3---------|
 
 
[Chorus]
                      I want to take you home!
e|-0--------0-------0--------0-----------2--------2------x--------x----------------------------------------|
B|-0--------0-------0--------0-----------3--------3------2--------2----------------------------------------|
G|-1--------1-------1--------1-----------2--------2------2--------2----------------------------------------|
D|-2--------2-------2--------2-----------0--------0------2--------2----------------------------------------|
A|-2--------2-------2--------2-----------x--------x------0--------0----------------------------------------|
E|-0--------0-------0--------0-----------x--------x------x--------x----------------------------------------|
   E                                     D               A
 
BASS
e|---------------------------------------------------------------------------|
B|---------------------------------------------------------------------------|
G|---------------------------------------------------------------------------|
D|---------------------------------------------------------------------------|
A|---------------------------------------5--5--5--5------0--0--0--0----------|
E|-0---0---0----0---0---0----0-----------------------------------------------
 
[Chorus]
 
                I   won't  do you  no  harm,             no
e|-0--------0-------0--------0-----------2--------2------x--------x----------------------------------------|
B|-0--------0-------0--------0-----------3--------3------2--------2----------------------------------------|
G|-1--------1-------1--------1-----------2--------2------2--------2----------------------------------------|
D|-2--------2-------2--------2-----------0--------0------2--------2----------------------------------------|
A|-2--------2-------2--------2-----------x--------x------0--------0----------------------------------------|
E|-0--------0-------0--------0-----------x--------x------x--------x----------------------------------------|
   E                                     D               A
 
BASS
e|---------------------------------------------------------------------------|
B|---------------------------------------------------------------------------|
G|---------------------------------------------------------------------------|
D|---------------------------------------------------------------------------|
A|---------------------------------------5--5--5--5------0--0--0--0----------|
E|-0---0---0----0---0---0----0-----------------------------------------------
 
[Chorus]
 
                        Ya got to be,    all mine,      all mine            Ohhh, Foxy Lady!
e|-0--------0-------0--------0-----------2--------2------x--------x------0----------------------------------|
B|-0--------0-------0--------0-----------3--------3------2--------2------0------------------/12-----/12-----|
G|-1--------1-------1--------1-----------2--------2------2--------2------1----------------------12------12--|
D|-2--------2-------2--------2-----------0--------0------2--------2------2----------------------------------|
A|-2--------2-------2--------2-----------x--------x------0--------0------2----------------------------------|
E|-0--------0-------0--------0-----------x--------x------x--------x------0----------------------------------|
   E                                     D               A               E
 
BASS
e|---------------------------------------------------------------------------|
B|---------------------------------------------------------------------------|
G|---------------------------------------------------------------------------|
D|---------------------------------------------------------------------------|
A|---------------------------------------5--5--5--5------0--0--0--0----------|
E|-0---0---0----0---0---0----0-------------------------------------------0---
[Outro]
            
Submit corrections

↑ Back to top | Tablatures and chords for acoustic guitar and electric guitar, ukulele, drums are parodies/interpretations of the original songs. You may use it for private study, scholarship, research or language learning purposes only