Home » R » Royal Guardsmen »

Royal Guardsmen - Christmas Bells Snoopys Christmas Bass

Artists:  A B C D E F G H I J K L M N O P Q R S T U V W X Y Z # 

Christmas Bells Snoopys Christmas Bass

(ver. 1) Click to play this song!
Royal Guardsmen
[INTRO]
  F        F        
G:--------|--------|
D:--------|3---3--2|
A:--------|--3--35-|
E:--------|--------|

[VERSE]
      F                        C
  The news had came out in the First World War
      C                    F
  The bloody Red Baron was flying once more
      F                      Bb
  The Allied Command ignored all of its men
      C                   F
  And called on Snoopy to do it again

  F        C        C        F        F        Bb       C        F
G:--------|--------|--------|--------|-------2|3---332-|--------|--------|
D:3---332-|--------|-------2|3---3--2|3---335-|--3----5|--------|3---3--2|
A:--3----5|3---3---|3---335-|--3--35-|--3-----|--------|3---3---|--3--35-|
E:--------|--3---3-|--3-----|--------|--------|--------|--3---3-|--------|

            F                       C
  T'was the night before Christmas, forty below
       C                 F
  When Snoopy went up in search of his foe
     F                       Bb
  He spied the Red Baron and fiercely they fought
       C                        F                     
  With ice on his wings, Snoopy knew he was caught

  F        C        C        F        F        Bb       C        F        F
G:--------|--------|--------|--------|-------2|3---332-|--------|--------|-------2|
D:3---332-|--------|-------2|3---3--2|3---335-|--3----5|--------|3---3--2|3---335-|
A:--3----5|3---3---|3---335-|--3--35-|--3-----|--------|3---3---|--3--35-|--3-----|
E:--------|--3---3-|--3-----|--------|--------|--------|--3---3-|--------|--------|

[CHORUS]
  Bb        C           F
  Christmas bells those Christmas bells
  Bb       C        F           
  Ring out from the land        
  Bb     C        F             
  Asking peace of all the world 
  Bb       C       Fsus4   F          F#
  And good will to man

  Bb  C    F        Bb  C    F        Bb  C    F        Bb  C    F        F# 
G:3-3-5-5-|--------|3-3-5-5-|--------|3-3-5-5-|--------|3-3-----|--------|--------|
D:--------|3-2----3|--------|3-2----3|--------|3-2----3|--------|3-3-3-3-|4---4--3|
A:--------|----5-3-|--------|----5-3-|--------|----5-3-|----3-3-|---3----|--4--46-|
E:--------|--------|--------|--------|--------|--------|--------|--------|--------|

[VERSE]
  F#                   C#                   
  The Baron had Snoopy dead in his sights
     C#                         F#
  He reached for the trigger to pull it up tight
      F#                     B
  Why he didn't shoot, well, we'll never know
     C#                        F#            (run:F# F Eb C# C Bb Ab F#)
  Or was it the bells from the village below

  F#       C#       C#       F#       F#       B        C#       F#       (run....)
G:--------|--------|--------|--------|-------3|4---443-|--------|--------|--------|
D:4---443-|--------|-------3|4---4--3|4---446-|--4----6|--------|4---4---|--------|
A:--4----6|4---4---|4---446-|--4--46-|--4-----|--------|4---4---|--4-----|--------|
E:--------|--4---4-|--4-----|--------|--------|--------|--4---4-|--------|--------|

[CHORUS]
  B         C#          F#
  Christmas bells those Christmas bells
  B       C#          F#
  Ringing through the land
  B        C#       F
  Bringing peace to all the world
  B        C#      F#sus4  F#       G
  And good will to man

  B   C#   F#       B   C#   F#       B   C#   F#       B   C#   F#       G  
G:4-4-6-6-|--------|4-4-6-6-|--------|4-4-6-6-|--------|4-4-----|--------|--------|
D:--------|4-3----4|--------|4-3----4|--------|4-3----4|--------|4-4-4-4-|5---5--4|
A:--------|----6-4-|--------|----6-4-|--------|----6-4-|----4-4-|---4----|--5--57-|
E:--------|--------|--------|--------|--------|--------|--------|--------|--------|

[VERSE]
  G                     D
  The Baron made Snoopy fly to the Rhine
      D                             G
  And forced him to land behind the enemy lines
  G                       C
  Snoopy was certain that this was the end
           D                      N/C            (BRIDGE)
  When the Baron cried out "Merry Christmas, mein friend!"

  G        D        D        G        G        C        D        N/C
G:--------|--------|--------|--------|-------4|5---554-|--------|--------|
D:5---554-|--------|-------4|5---5--4|5---557-|--5----7|--------|--------|
A:--5----7|5---5---|5---557-|--5--57-|--5-----|--------|5---5---|--------|
E:--------|--5---5-|--5-----|--------|--------|--------|--5-----|--------|

[BRIDGE]
  G   C    D   G    Ab       Ab
G:----5--5|7--7----|--------|--------|
D:5--5----|----5-5-|6---6--5|6---6--5|
A:--------|--------|--6--68-|--6--68-|
E:--------|--------|--------|--------|

[VERSE]
  Ab                       Eb
  The Baron then offered a holiday toast
      Eb                Ab
  And Snoopy our hero saluted his host
      Ab                         Db  
  And then with a roar they were both on their way
       Eb                     Ab              (run:Ab - Bb - C)
  Each knowing they'd meet on some other day

  Ab       Eb       Eb       Ab       Ab       Db       Eb       Ab       Ab
G:--------|--------|--------|--------|-------5|6---66--|--------|--------|------5-|
D:6---665-|--------|-------5|6---6--5|6---668-|--6---85|--------|6---6--5|6-6-8---|
A:--6----8|6---6---|6---668-|--6--68-|--6-----|--------|6---6---|--6--68-|--------|
E:--------|--6---6-|--6-----|--------|--------|--------|--6---6-|--------|--------|

[CHORUS] (FADE AND REPEAT)
  Db        Eb          Ab
  Christmas bells those Christmas bells
  Db      Eb          Ab
  Ringing through the land
  Db       Eb       Ab
  Bringing peace to all the world
  Db       Eb      Absus4  Ab
  And good will to man                  

  Db  Eb   Ab       Db  Eb   Ab       Db  Eb   Ab       Db  Eb   Ab       
G:6-6-8-8-|--------|6-6-8-8-|--------|6-6-8-8-|--------|6-6-----|-------5|
D:--------|6-5----6|--------|6-5----6|--------|6-5----6|--------|6---668-|
A:--------|----8-6-|--------|----8-6-|--------|----8-6-|----6-6-|--6-----|
E:--------|--------|--------|--------|--------|--------|--------|--------|
            
Submit corrections

↑ Back to top | Tablatures and chords for acoustic guitar and electric guitar, ukulele, drums are parodies/interpretations of the original songs. You may use it for private study, scholarship, research or language learning purposes only